the one

(/) Slide Up  (\) Slide Down  (h) Hammer On  (p) Pull Off  (b) Bend (r) Release (v) Vibrato


E|--------------------------------------------------------------------------
B|--------------------------------------------------------------------------
G|--7--7--7--7--7--7--6--6--6--6--6--6--------------------4--4--4--4--4--4-- chorus/verse
D|--9--9--9--9--9--9--7--7--7--7--7--7--4--4--4--4--4--4--5--5--5--5--5--5--
A|--------------------------------------5--5--5--5--5--5--------------------
E|--------------------------------------------------------------------------



E|-----------------------------------------------------------------------------------------
B|-----------------------------------------------------------------------------------------
G|--------7-----9--7-----7-----6-----7--6-----6--------------------------4-----7--6--4--6--
D|----9-----9--------9-----7-----7--------7--------4-----7--5--4--5--5-----5--------------
A|-----------------------------------------------5-----5-----------------------------------fill
E|-----------------------------------------------------------------------------------------
http://www.guitartabcreator.com
Guitar Tab Creator is intended to store guitar tab created through the tool. It currently does not support in-line text editing. Any text you place in here will be lost. If you need to comment on your tab, please use the "Tab Notes" section located below.