number 2

(/) Slide Up  (\) Slide Down  (h) Hammer On  (p) Pull Off  (b) Bend (r) Release (v) Vibrato

E|--------------------------------------------------------------------------------------------------
B|--------------------------------------------------------------------------------------------------
G|--4--------4-----------4--7--------7-----------7--5--------5-----------5--5--------5-----------5--
D|-----5--------5-----5--------5--------5-----5--------5--------5-----5--------5--------5-----5-----
A|--------7--------7--------------7--------7--------------7--------7--------------7--------7--------
E|--------------------------------------------------------------------------------------------------



E|--------------------------------------------------------------------------0--
B|--------------------------------------------------------------------------0--
G|--5--------5-----------5--4--------4-----------4--2--------2-----------2--0--
D|-----4--------4-----4--------4--------4-----4--------4--------4-----4-----2--
A|--------5--------5--------------5--------5--------------5--------5--------3--
E|-----------------------------------------------------------------------------



E|--------------------------------------
B|--------------------------------------
G|--------------------------------------
D|--2--2--2--5--5--5--4--4--4--5--------
A|--2--2--2--7--7--7--5--5--5--7--2--2--
E|--0--0--0-----------------------3--3--



E|--------------------------------------
B|--------------------------------------
G|-----------------------------------0--
D|--2--2--2--5--5--5-----------4--4--4--
A|--2--2--2--7--7--7--2--2--2--5--5--5--
E|--0--0--0-----------3--3--3-----------



E|-----------------------------------------
B|-----------------------------------------
G|--------------------------0-----2--------
D|--2--------2-----------2-----3-----------
A|--2-----2-----2--2--3-----------------2--
E|--0--0-----------------------------0-----



E|--------------------------------------------------------------------------------------------------
B|--------------------------------------------------------------------------------------------0-----
G|--------------------------------0-----------0-----------------------------------0-----------------
D|--------2-----------0--------2-----2-----4-----4--------2-----------2--------2-----2-----4-----4--
A|-----2-----2-----2-----2--3-----------5--------------2-----2-----2-----2--3-----------5-----------
E|--0-----------3-----------------------------------0-----------3-----------------------------------
http://www.guitartabcreator.com
Guitar Tab Creator is intended to store guitar tab created through the tool. It currently does not support in-line text editing. Any text you place in here will be lost. If you need to comment on your tab, please use the "Tab Notes" section located below.