numba tree nigga!

(/) Slide Up  (\) Slide Down  (h) Hammer On  (p) Pull Off  (b) Bend (r) Release (v) Vibrato


E|-----------------------------------------------------------------------------------
B|--------0--------0--------0--7--5--4--5--4--------0--------0-----0-----------------
G|-----0--------0--------0-----------------------0--------0-----------0--------7--0--
D|-----------------------------------------------------------------------4--5--------
A|--3--------7--------5-----------------------3--------7--------5--------------------
E|-----------------------------------------------------------------------------------



E|--------------------------------------------------------------------------------------------------
B|--------0-----------------------0-----------------------0-----------------------0-----------------
G|-----0-----0--2--4--2--0-----0-----0--4--5--4--0-----0-----0--2--4--2--0-----0-----0--7--9--7--0--
D|--------------------------------------------------------------------------------------------------
A|--3-----------------------5-----------------------3-----------------------5-----------------------
E|--------------------------------------------------------------------------------------------------
http://www.guitartabcreator.com
Guitar Tab Creator is intended to store guitar tab created through the tool. It currently does not support in-line text editing. Any text you place in here will be lost. If you need to comment on your tab, please use the "Tab Notes" section located below.