Power chords in Cm and E

(/) Slide Up  (\) Slide Down  (h) Hammer On  (p) Pull Off  (b) Bend (r) Release (v) Vibrato
E|--------------------------------------------------------------
B|--------------------------------------------------------------
G|--------------------------------------------------------------
D|--------------------------------------------------------------
A|--11--11--11--12--11--9----11--11--9--11----11--11--9---11----
E|--9---9---9---9---9---9----9---9---9--9-----12--12--12--12----



E|------------------------------------------------------------------
B|------------------------------------------------------------------
G|------------------------------------------------------------------
D|------------------------------------------------------------------
A|--14--14--14--15--14--12--14----14--14--12--14----11--11--9---11--
E|--12--12--12--12--12--12--12----12--12--12--12----12--12--12--12--
http://www.guitartabcreator.com
Guitar Tab Creator is intended to store guitar tab created through the tool. It currently does not support in-line text editing. Any text you place in here will be lost. If you need to comment on your tab, please use the "Tab Notes" section located below.