Em & Gmajor

(/) Slide Up  (\) Slide Down  (h) Hammer On  (p) Pull Off  (b) Bend (r) Release (v) Vibrato


E|------------------------------
B|------------------------------
G|------------------------------
D|--9--10--7-----7--9-----------
A|--7--7---7--9--9-----10-------
E|------------------------------



E|-------------------------------------------
B|-------------------------------------------
G|--7---7-------7-------7-----7---7---9------
D|----------9--------------9----------9--9---
A|--10--10--10--10--10--------10--10-----10--
E|-------------------------------------------
http://www.guitartabcreator.com
Guitar Tab Creator is intended to store guitar tab created through the tool. It currently does not support in-line text editing. Any text you place in here will be lost. If you need to comment on your tab, please use the "Tab Notes" section located below.