A drone with Eminor progression

(/) Slide Up  (\) Slide Down  (h) Hammer On  (p) Pull Off  (b) Bend (r) Release (v) Vibrato


E|--------------------------------------------10-------------
B|-----12/13--10-------12/13--10-------12/13------12--8--10--
G|--9---------------9---------------9------------------------
D|-----------------------------------------------------------
A|--0---------------0---------------0------------------------
E|-----------------------------------------------------------



E|------------10--------------10--------------10--12----------
B|-----12/13-----------12/13-----------12/13----------13--10--
G|--9---------------9---------------9-------------------------
D|------------------------------------------------------------
A|--0---------------0---------------0-------------------------
E|------------------------------------------------------------
http://www.guitartabcreator.com
Guitar Tab Creator is intended to store guitar tab created through the tool. It currently does not support in-line text editing. Any text you place in here will be lost. If you need to comment on your tab, please use the "Tab Notes" section located below.