7th chord progression in Emajor

(/) Slide Up  (\) Slide Down  (h) Hammer On  (p) Pull Off  (b) Bend (r) Release (v) Vibrato


E|--------------------------------------------------------------------
B|--------------------------------------------------------------------
G|--------9--8--6--8--------8--6--4--6--------6--4-----------6--4--6--
D|-----6-----------------6-----------------6--------5-----5-----------
A|--7-----------------7-----------------6--------------6--------------
E|--------------------------------------------------------------------



E|----------------------------
B|-------------------------9--
G|---------------6--8------8--
D|--9p8--6h8-----7--8------9--
A|------------9--7--9------7--
E|----------------------------
http://www.guitartabcreator.com
Guitar Tab Creator is intended to store guitar tab created through the tool. It currently does not support in-line text editing. Any text you place in here will be lost. If you need to comment on your tab, please use the "Tab Notes" section located below.