Riff 1

(/) Slide Up  (h) Hammer On  (p) Pull Off  (b) Bend (x) Palm Mute

*Play order = (1) (2) (3), alternating (2A) & (2B) each play through.


(1)
E|-----------------------------------------------------------------
B|-----------------------------------------------------------------
G|-----------------------------------------------------------------
D|-0-x-0-3p0-x-0---------------0-x-0-3p0-x-0-----------------------
A|-0-x-0-3p0-x-0--3-3h5-5p3r0--0-x-0-3p0-x-0--3-3h5-5b5b-----------
E|-----------------------------------------------------------------

*

(2A)
E|-----------------------------------------------------------------
B|-----------------------------------------------------------------
G|-----------------------------------------------------------------
D|-0-x-0-3p0-0-3/5--3-3h5-5p3p0--0-x-0-3p0-x-3/5--3-3h5-5b5b-------
A|-0-x-0-3p0-0-3/5---------------0-x-0-3p0-x-3/5-------------------
E|-----------------------------------------------------------------

(2B)
E|-----------------------------------------------------------------
B|-----------------------------------------------------------------
G|-----------------------------------------------------------------
D|-0-x-0-3p0-x-3/5--3-3h5-5p3p0--0-x-0-3p0-x-3/5--3-3h5-3h5p3h5p3p0
A|-0-x-0-3p0-x-3/5---------------0-x-0-3p0-x-3/5-------------------
E|-----------------------------------------------------------------

*

(3)
E|-----------------------------------------------------------------
B|-----------------------------------------------------------------
G|-----------------------------------------------------------------
D|-0-x-0-3p0-x-0--5-5-5-5p3p0--0-x-0-3p0-x-0--5-5-5-5p3p0----------
A|-0-x-0-3p0-x-0---------------0-x-0-3p0-x-0-----------------------
E|-----------------------------------------------------------------
Guitar Tab Creator is intended to store guitar tab created through the tool. It currently does not support in-line text editing. Any text you place in here will be lost. If you need to comment on your tab, please use the "Tab Notes" section located below.