qwdasdas

(/) Slide Up  (\) Slide Down  (h) Hammer On  (p) Pull Off  (b) Bend (r) Release (v) Vibrato

E|------------8-----6--
B|---------------4-----
G|------5--4-----------
D|--11-----------------
A|---------------------
E|---------------------



E|------------
B|------------
G|-----10-----
D|--4---------
A|---------3--
E|------------
http://www.guitartabcreator.com
Guitar Tab Creator is intended to store guitar tab created through the tool. It currently does not support in-line text editing. Any text you place in here will be lost. If you need to comment on your tab, please use the "Tab Notes" section located below.