New song lead

(/) Slide Up  (\) Slide Down  (h) Hammer On  (p) Pull Off  (b) Bend (r) Release (v) Vibrato

E|--------------------------13--13--------------------------13--13--------------------------13--13--
B|--10--10--10--11--11--11----------10--10--10--11--11--11----------10--10--10--11--11--11----------
G|--------------------------------------------------------------------------------------------------
D|--------------------------------------------------------------------------------------------------
A|--------------------------------------------------------------------------------------------------
E|--------------------------------------------------------------------------------------------------



E|--------------------------13--13--18--18--18--17--17--17------------------------------------------
B|--10--10--10--11--11--11----------------------------------18--18--18--15--15--15--15--15--15--15--
G|--------------------------------------------------------------------------------------------------
D|--------------------------------------------------------------------------------------------------
A|--------------------------------------------------------------------------------------------------
E|--------------------------------------------------------------------------------------------------



E|--18--18--18--17--17--17------------------------------------------
B|--------------------------18--18--18--13--13--13--13--15--15--15--
G|------------------------------------------------------------------
D|------------------------------------------------------------------
A|------------------------------------------------------------------
E|------------------------------------------------------------------
http://www.guitartabcreator.com
Guitar Tab Creator is intended to store guitar tab created through the tool. It currently does not support in-line text editing. Any text you place in here will be lost. If you need to comment on your tab, please use the "Tab Notes" section located below.