Eh? Rhythm

(/) Slide Up  (\) Slide Down  (h) Hammer On  (p) Pull Off  (b) Bend (r) Release (v) Vibrato
E|--------------------------------------------------
B|--------------------------------------------------
G|--------------------------------------------------
D|--------------------------------------------------
A|--2/5--0--0--0--12--0--9--9--9--9--9--9--9--9--9--
E|--0-0--0--0--0--0---0--0--0--0--0--0--0--0--0--0--



E|--------------------------------------------------
B|--------------------------------------------------
G|--------------------------------------------------
D|--7--7--7--7--7--7--7--7--7--7--7--4--4--4--4--4--
A|--5--5--5--5--5--5--5--5--5--5--5--5--5--5--5--5--
E|--4--4--4--5--5--5--5--5--0--0--0--0--0--0--0--0--



E|-----------
B|-----------
G|--7--------
D|--7--7--5--
A|--5--7--5--
E|--0--7--5--



E|--------------------------------------------------
B|--------------------------------------------------
G|--------------------------------------------------
D|--------------------------------------------------
A|--------------------------------------------------
E|--0--0--2--0--2--4--0--2--0--2--4--0--2--0--2--4--



E|-----------------
B|-----------------
G|-----------------
D|--7--7--7--4--7--
A|--5--5--5--5--7--
E|--4--5--0--0--7--
http://www.guitartabcreator.com
Guitar Tab Creator is intended to store guitar tab created through the tool. It currently does not support in-line text editing. Any text you place in here will be lost. If you need to comment on your tab, please use the "Tab Notes" section located below.