Eh? Lead

(/) Slide Up  (\) Slide Down  (h) Hammer On  (p) Pull Off  (b) Bend (r) Release (v) Vibrato
E|--------------------------------------------
B|--------------------------------------------
G|--4--7--14--11--4--7--14--11--7--9--11--12--
D|--------------------------------------------
A|--2--5--12--9---2--5--12--9---5--7--9---10--
E|--------------------------------------------



E|-----------------------------------------------------------
B|-----------------------------------------------------------
G|-----------------------------------------------------------
D|--0--0--14--0--14--16--0--14--0--14--16--0--14--0--14--16--
A|-----------------------------------------------------------
E|-----------------------------------------------------------



E|---------------------------------------------------------------------------------
B|---------10---------10-------10---------10---------10-------10-------------------
G|--6h7p6------6h7p6------6h7------6h7p6------6h7p6------6h7------7--9--11--12--9--
D|---------------------------------------------------------------------------------
A|----------------------------------------------------------------5--7--9---10--7--
E|---------------------------------------------------------------------------------
http://www.guitartabcreator.com
Guitar Tab Creator is intended to store guitar tab created through the tool. It currently does not support in-line text editing. Any text you place in here will be lost. If you need to comment on your tab, please use the "Tab Notes" section located below.