Baantjer Theme v0.1

(/) Slide Up  (\) Slide Down  (h) Hammer On  (p) Pull Off  (b) Bend (r) Release (v) Vibrato


E|-----5--7--8---------5--7--8------------5--7----8--7----5--|--
B|--5---------------6------------------7---------------------|--
G|----------------------------------8------------------------|--
D|-----------------------------------------------------------|--
A|-----------------------------------------------------------|--
E|-----------------------------------------------------------|--



E|------10--12--13----------10--12--13------12/15--13--12--10--12--|-----
B|--10------------------11-----------------------------------------|-----
G|-----------------------------------------------------------------|-----
D|-----------------------------------------------------------------|-----
A|-----------------------------------------------------------------|-----
E|-----------------------------------------------------------------|-----
http://www.guitartabcreator.com
Guitar Tab Creator is intended to store guitar tab created through the tool. It currently does not support in-line text editing. Any text you place in here will be lost. If you need to comment on your tab, please use the "Tab Notes" section located below.