On The Turning Away

(/) Slide Up  (\) Slide Down  (h) Hammer On  (p) Pull Off  (b) Bend (r) Release (v) Vibrato
E|---------------------------------12---------------------------
B|--------------15b17--15--12--15------12-----------------------
G|--------------------------------------------0--2b3--2--0------
D|-----------------------------------------2----------------2v--
A|--------------------------------------------------------------
E|--0--2b3--2v--------------------------------------------------



E|-----------------------------------------------
B|--12--15--15b17v--15b17--15--15v--12------15v--
G|--------------------------------------14-------
D|-----------------------------------------------
A|-----------------------------------------------
E|-----------------------------------------------



E|--------------------------------------------------
B|-------------------------------------3------------
G|--2--0--------------0--2-----0--3b4-----3p2p0-----
D|--------2p0--2v--2--------2--------------------2--
A|--------------------------------------------------
E|--------------------------------------------------



E|----------------------------------------------
B|--12--15--15b17--15b17--15p12--15--12p10------
G|------------------------------------------12--
D|----------------------------------------------
A|----------------------------------------------
E|----------------------------------------------



E|------------------------------------------------------------------------
B|------------------------------------------------------------------------
G|-----------------------------0--0--0------------------------------------
D|-----------------------------2--2--2-----------------------------0------
A|-----0--2-----------0--------2--2--2-----------2--3v--2p0--2--------2v--
E|--3--------3--2--3-----2--0--0--0--0--0--2--3-----------------3---------



E|---------------------------------------------------------------
B|--12--12--15--15b17--15p12--15v--15b17--15p12--15v--12p10------
G|-----------------------------------------------------------12--
D|---------------------------------------------------------------
A|---------------------------------------------------------------
E|---------------------------------------------------------------



E|------17b19--17--15--14--15--14--------------------------------------------------------
B|--15-----------------------------15--17v--14b15--12------------------------------------
G|-----------------------------------------------------14--12--14b15--14------12--14b16--
D|------------------------------------------------------------------------14-------------
A|---------------------------------------------------------------------------------------
E|---------------------------------------------------------------------------------------



E|------------------------------------------------------------------------------------------
B|--15--------------------------------------------------------------------------------------
G|------14b16--14v--12-------2b4r2--0--2--2b4--2b4r2--0--2--0-------------------------------
D|----------------------14v-----------------------------------------------------------------
A|------------------------------------------------------------------0--2-----------0--------
E|---------------------------------------------------------------3--------3--2--3-----2--0--



E|-------------------------------------------------------------------------------
B|-------------------------------------------------------------------------------
G|-------------------------------------------------------------------------------
D|------------------------------0-----------0-----0--------------------0--0------
A|-----------2--3v--2p0--2v--0-----2v--0h2-----2-----2--------------2------------
E|--0--2--3---------------------------------------------0--0--2--3-----------3v--



E|--15p12------14p12------15p12------14p12------15b17--15--12-----------------------------------
B|---------12---------12---------12---------12--------------------------15--12--15--12----------
G|-------------------------------------------------------------14v--14------------------14--12--
D|----------------------------------------------------------------------------------------------
A|----------------------------------------------------------------------------------------------
E|----------------------------------------------------------------------------------------------



E|------------------------------------------12v--14--15--17b19--17--17v--15--15v--
B|----------------------------0/12--12--15----------------------------------------
G|--15p14--12------12v--12\0------------------------------------------------------
D|-------------14-----------------------------------------------------------------
A|--------------------------------------------------------------------------------
E|--------------------------------------------------------------------------------



E|-----------------------------------------------------15--------------------15------------
B|--8p0-----------------8p0--7p0-----------------------------------------------------------
G|-------7p0-------7p0------------9p0--7p0--14--14b16------16r14--12--14b16------16r14-----
D|------------9p0--------------------------------------------------------------------------
A|-----------------------------------------------------------------------------------------
E|-----------------------------------------------------------------------------------------



E|--------------------------------------------------------15-------------------------------------
B|-----------------------------------------------------------------------------------------------
G|--12--14b16--12--------------------12------9/12--14b16------16r14r12--14--14b16--14--16p14-----
D|-----------------14---------12h14------14------------------------------------------------------
A|---------------------10/14---------------------------------------------------------------------
E|-----------------------------------------------------------------------------------------------



E|---------------------------------------------------------------------------------
B|---------------------------------------------------------------------------------
G|--12v--7/9--9--9p7---------------------------------------------------------------
D|--------------------9--9\7--5--7p5-----7p5-----------------------5---------------
A|------------------------------------7-------7--5--7v-------5--7-----7v-----------
E|------------------------------------------------------5h7---------------5--3--0--



E|----------------------------------------------------------------------------------------------
B|------------------------------7--8v--7h8--7v--8--8v-------------------------------------------
G|--------------7--9--9v--7--9------------------------------------------------------------------
D|--------7--9----------------------------------------------------------------------------------
A|--7h10--------------------------------------------------0--2-----------0----------------------
E|-----------------------------------------------------3--------3--2--3-----2--0----0--2--3-----



E|----------------------------------------12v--14--15--17--17b19r17--17v--15--15v--
B|----------------------------12--12--15-------------------------------------------
G|---------------------------------------------------------------------------------
D|---------------------------------------------------------------------------------
A|--2--3v--2p0--3v-----0--2v-------------------------------------------------------
E|------------------3--------------------------------------------------------------



E|-----------------------------|--------------------------------------|--X5
B|-----------------------------|--12--12--12--12--12--12--12--10--12--|--
G|-----------------------------|--12--12--12--12--12--12--12--10--12--|--
D|-----------------------------|--12--12--12--12--12--12--12--10--12--|--
A|--------0--2-----------0-----|--10--10--10--10--10--10--10--10--10--|--
E|--10\3--------3--2--3-----2--|--------------------------------------|--



E|----------------------------------------------------------------
B|--15b17r15--12--12----------------------------------------------
G|--------------------14--12--12v---------------------------------
D|----------------------------------------------------------------
A|--------------------------------------0--2-----------0----------
E|-----------------------------------3--------3--2--3-----2--0----
http://www.guitartabcreator.com
Guitar Tab Creator is intended to store guitar tab created through the tool. It currently does not support in-line text editing. Any text you place in here will be lost. If you need to comment on your tab, please use the "Tab Notes" section located below.