verse+chorus

(/) Slide Up  (\) Slide Down  (h) Hammer On  (p) Pull Off  (b) Bend (r) Release (v) Vibrato


E|--------------------------------------------------
B|--------------------------------------------------
G|-----------2-----2-----2-----------------5--------
D|-----------2-----2-----2-----------5-----5-----5--
A|-----------2-----2-----2-----------5-----5-----5--
E|--0--0--0--0--0-----0--0--0--0--0--3--0-----0--3--



E|--------------------------------------------------
B|--------------------------------------------------
G|-----------2-----2-----2-----------------5--------
D|-----------2-----2-----2-----------5-----5-----5--
A|-----------2-----2-----2-----------5-----5-----5--
E|--0--0--0--0--0-----0--0--0--0--0--3--0-----0--3--



E|--------------------------------------------------
B|--------------------------------------------------
G|-----------2-----2-----2-----------------5--------
D|-----------2-----2-----2-----------5-----5-----5--
A|-----------2-----2-----2-----------5-----5-----5--
E|--0--0--0--0--0-----0--0--0--0--0--3--0-----0--3--



E|--------------------------------------------------
B|--------------------------------------------------
G|-----------2-----2-----2-----------------5--------
D|-----------2-----2-----2-----------5-----5-----5--
A|-----------2-----2-----2-----------5-----5-----5--
E|--0--0--0--0--0-----0--0--0--0--0--3--0-----0--3--



E|-----------
B|-----------
G|-----------
D|-----------
A|-----------
E|--0--0--0--



E|-----------------------------------------------------------------
B|-----------------------------------------------------------------
G|--7--7--7--7--7--7--7--7--7--11--11--11--11--11--11--11--11--11--
D|--7--7--7--7--7--7--7--7--7--11--11--11--11--11--11--11--11--11--
A|--5--5--5--5--5--5--5--5--5--9---9---9---9---9---9---9---9---9---
E|-----------------------------------------------------------------



E|-----------------------------------------------------------------
B|-----------------------------------------------------------------
G|--5--5--5--5--5--5--5--5--5--12--12--12--12--12--12--12--12--12--
D|--5--5--5--5--5--5--5--5--5--12--12--12--12--12--12--12--12--12--
A|--3--3--3--3--3--3--3--3--3--10--10--10--10--10--10--10--10--10--
E|-----------------------------------------------------------------



E|-----------------------------------------
B|-----------------------------------------
G|--2-----2-----2-----------------5--------
D|--2-----2-----2-----------5-----5-----5--
A|--2-----2-----2-----------5-----5-----5--
E|--0--0-----0--0--0--0--0--3--0-----0--3--



E|-----------------------------------------------------
B|-----------------------------------------------------
G|-----------2-----2-----2-----------------5-----------
D|-----------2-----2-----2-----------5-----5-----5-----
A|-----------2-----2-----2-----------5-----5-----5-----
E|--0--0--0--0--0-----0--0--0--0--0--3--0-----0--3-----



E|-----------------------------------------------------------------
B|-----------------------------------------------------------------
G|--7--7--7--7--7--7--7--7--7--11--11--11--11--11--11--11--11--11--
D|--7--7--7--7--7--7--7--7--7--11--11--11--11--11--11--11--11--11--
A|--5--5--5--5--5--5--5--5--5--9---9---9---9---9---9---9---9---9---
E|-----------------------------------------------------------------



E|-----------------------------------------------------------------
B|-----------------------------------------------------------------
G|--5--5--5--5--5--5--5--5--5--12--12--12--12--12--12--12--12--12--
D|--5--5--5--5--5--5--5--5--5--12--12--12--12--12--12--12--12--12--
A|--3--3--3--3--3--3--3--3--3--10--10--10--10--10--10--10--10--10--
E|-----------------------------------------------------------------



E|--------------------------------------------------------------
B|--------------------------------------------------------------
G|--5--5--5--5--5--5--5--5--5--4--4--4--4--4--4--4--4--4--4--4--
D|--5--5--5--5--5--5--5--5--5--4--4--4--4--4--4--4--4--4--4--4--
A|--3--3--3--3--3--3--3--3--3--2--2--2--2--2--2--2--2--2--2--2--
E|--------------------------------------------------------------



E|------------------------------------
B|------------------------------------
G|--5--5--5------------4--4--4--4--4--
D|--5--5--5------------4--4--4--4--4--
A|--3--3--3--3--5v--3--2--2--2--2--2--
E|------------------------------------
http://www.guitartabcreator.com
Guitar Tab Creator is intended to store guitar tab created through the tool. It currently does not support in-line text editing. Any text you place in here will be lost. If you need to comment on your tab, please use the "Tab Notes" section located below.