solo for verse+chorus

(/) Slide Up  (\) Slide Down  (h) Hammer On  (p) Pull Off  (b) Bend (r) Release (v) Vibrato


E|-------
B|-------
G|--7v--h
D|-------
A|-------
E|-------



E|--------------------------------------------------------------------------5--
B|-----------------------------------------------------------------------5-----
G|--7b8--7p5-----7p5-----5-----5-----7b8--7p5-----7p5-----5-----------5--------
D|------------7-------7-----7-----7------------7-------7-----7--5--7-----------
A|-----------------------------------------------------------------------------
E|-----------------------------------------------------------------------------



E|--8p5-----8p5-----5-----8/10--10b11--10b11--10p8------10p8------8------8--
B|-------8-------8-----8----------------------------10--------10-----10-----
G|--------------------------------------------------------------------------
D|--------------------------------------------------------------------------
A|--------------------------------------------------------------------------
E|--------------------------------------------------------------------------



E|---------------------------------------
B|---------------------------------------
G|--9p5h7p5h9p5h7p5h9p5h7p5h9p5h7p5--9p9h
D|---------------------------------------
A|---------------------------------------
E|---------------------------------------
http://www.guitartabcreator.com
Guitar Tab Creator is intended to store guitar tab created through the tool. It currently does not support in-line text editing. Any text you place in here will be lost. If you need to comment on your tab, please use the "Tab Notes" section located below.