Solo

(/) Slide Up  (\) Slide Down  (h) Hammer On  (p) Pull Off  (b) Bend (r) Release (v) Vibrato


E|--------------------------------
B|--------------------------------
G|--------------------------------
D|--------------------3v------3v--
A|----------3--4--5v------5v------
E|--3v--6v------------------------



E|--------------------------------
B|--------------------------------
G|--------------------------------
D|--------------------3v------3v--
A|----------3--4--5v------5v------
E|--3v--6v------------------------



E|-------------------------------
B|-------------------------------
G|------5v--5p3------3v------3v--
D|---------------5v------5v------
A|--3v---------------------------
E|-------------------------------



E|-------------------------------
B|-------------------------------
G|-------------------------------
D|------5v--5p3------3v------3v--
A|---------------5v------5v------
E|--3v---------------------------



E|-------------------------------
B|-------------------------------
G|-------------------------------
D|------5v--5p3------3v------3v--
A|---------------5v------5v------
E|--3v---------------------------



E|------------------------------------------------------------------
B|------------------------------------------------------------------
G|------7v--7p5------5v--5--4--3---3v------3v--5p3------3v------3v--
D|---------------7v------7--6--5v------5v-----------5v------5v------
A|--5v--------------------------------------------------------------
E|------------------------------------------------------------------



E|-------------------------------------------
B|-------------------------------------------
G|-------------------------------------------
D|-----------------3v------3v------5p3--5p3--
A|--------3--4--5------5v------5v------------
E|--3--6-------------------------------------



E|-------------------------------------------
B|-------------------------------------------
G|-------------------------------------------
D|-----------------3v------3v------5p3--5p3--
A|--------3--4--5------5v------5v------------
E|--3--6-------------------------------------



E|---------------------------------------
B|---------------------------------------
G|---------------------------------------
D|--5--4--3------------------------------
A|-----------5--4--3---------------------
E|--------------------6--5--4--3--2--1v--
http://www.guitartabcreator.com
Guitar Tab Creator is intended to store guitar tab created through the tool. It currently does not support in-line text editing. Any text you place in here will be lost. If you need to comment on your tab, please use the "Tab Notes" section located below.