society (melody)

(/) Slide Up  (\) Slide Down  (h) Hammer On  (p) Pull Off  (b) Bend (r) Release (v) Vibrato


E|---------------------------------------------------------------------
B|---------------------------------------------------------------------
G|--------------2--2--2-----------2--------------2--2--2---------------
D|--0--0--0--0-----------------0-----0--0--0--0-----------------0------
A|-----------------------1--1-----------------------------1--1-----1v--
E|---------------------------------------------------------------------



E|---------------------------------------------------------------------
B|---------------------------------------------------------------------
G|--------------2--2--2-----------2--------------2--2--2---------------
D|--0--0--0--0-----------------0-----0--0--0--0-----------------0------
A|-----------------------1--1-----------------------------1--1-----1v--
E|---------------------------------------------------------------------



E|--------------------------------------------------------------------------------
B|--------------------------------------------------------------------------------
G|--------------------------------------------------------------------------------
D|--------------------------------------------------------------------------------
A|-----------7--7--7--------------------------------7--7--7-----------------------
E|--5--5--5-----------7--7--7--10--10--10--5--5--5-----------7--7--7--10--10--10--



E|-----------------------------------------------------------------------------------
B|-----------------------------------------------------------------------------------
G|-----------------------------------------------------------------------------------
D|-----------------------------------------------------------------------------------
A|-----------7--7--7--------------------------------7--7--7--------------------------
E|--5--5--5-----------7--7--7--10--10--10--5--5--5-----------7--7--7--10--10--10-----



E|--------------------------------------------------------------
B|--------------------------------------------------------------
G|--------------------------------------------------------------
D|--------------------------------------------------------------
A|--2--5--4--2--5--4--2--5--4--2--5--4--2--2--2--2--2--2--2--2--
E|--------------------------------------------------------------
http://www.guitartabcreator.com
Guitar Tab Creator is intended to store guitar tab created through the tool. It currently does not support in-line text editing. Any text you place in here will be lost. If you need to comment on your tab, please use the "Tab Notes" section located below.