society

(/) Slide Up  (\) Slide Down  (h) Hammer On  (p) Pull Off  (b) Bend (r) Release (v) Vibrato

E|----------------------------------------------------------------------------------------------
B|-----------7--------------------8-----------8--------------7----------------------3-----------
G|--------7-----7--------------7-----7-----7-----7--------7-----7----------------3-----3--------
D|-----7-----------7-----5--5-----------5--------------7-----------7----------3-----------3-----
A|--5-----------------5-----------------------------5----------------------1--------------------
E|--------------------------------------------------------------------5\2-----------------------



E|---------------------------------------------------------------------------------------------
B|----------------7--------------------8-----------8--------------7----------------------3-----
G|-------------7-----7--------------7-----7-----7-----7--------7-----7----------------3-----3--
D|----------7-----------7-----5--5-----------5--------------7-----------7----------3-----------
A|-------5-----------------5-----------------------------5----------------------1--------------
E|--2/5--------------------------------------------------------------------5\2-----------------



E|---------------------------------------------------------------------------------------------
B|-------------------7--------------------8-----------8--------------7----------------------3--
G|----------------7-----7--------------7-----7-----7-----7--------7-----7----------------3-----
D|--3----------7-----------7-----5--5-----------5--------------7-----------7----------3--------
A|----------5-----------------5-----------------------------5----------------------1-----------
E|-----2/5--------------------------------------------------------------------5\2--------------



E|---------------------------------------------------------------------------------------------
B|----------------------7--------------------8-----------8--------------7----------------------
G|--3----------------7-----7--------------7-----7-----7-----7--------7-----7----------------3--
D|-----3----------7-----------7-----5--5-----------5--------------7-----------7----------3-----
A|-------------5-----------------5-----------------------------5----------------------1--------
E|--------2/5--------------------------------------------------------------------5\2-----------



E|---------------------------------------------------------------------------------------------
B|--3----------------------7--------------------8-----------8--------------7-------------------
G|-----3----------------7-----7--------------7-----7-----7-----7--------7-----7----------------
D|--------3----------7-----------7-----5--5-----------5--------------7-----------7----------3--
A|----------------5-----------------5-----------------------------5----------------------1-----
E|-----------2/5--------------------------------------------------------------------5\2--------



E|----------------------------------------------------------------------------------------------
B|-----3----------------------------------------------------------------------------------------
G|--3-----3----------------------9--9--9--9--------------------------------------------9--9--9--
D|-----------3--4/7--7--7--7--7--9--9--9--9--9--9--9--9--12--12--12--12--4/7--7--7--7--9--9--9--
A|--------------4-7--7--7--7--7--7--7--7--7--9--9--9--9--12--12--12--12--4-7--7--7--7--7--7--7--
E|--------------2-5--5--5--5--5--------------7--7--7--7--10--10--10--10--2-5--5--5--5-----------



E|---------------------------------------------------------------------------------------------
B|---------------------------------------------------------------------------------------------
G|--9------------------------------------------------------------------------------------------
D|--9--9--9--9--9--12--12--12--12--4--2--2--2--2--2--2--2--2--5--5--5--5--4--4--4--4--2--2--2--
A|--7--9--9--9--9--12--12--12--12--4--2--2--2--2--2--2--2--2--5--5--5--5--4--4--4--4--2--2--2--
E|-----7--7--7--7--10--10--10--10--2--0--0--0--0--0--0--0--0--0--0--0--0--0--0--0--0--0--0--0--



E|-----------------------6b7--6p4-----------------------------------6b7--6p4------------------
B|---------------------------------5------------------------------------------6v--------------
G|--------------------------------------------------------------------------------------------
D|--2--2--2--2--2--5--5---------------2--2--2--2--2--2--2--2--5--5----------------2--2--2--2--
A|--2--2--2--2--2--5--5---------------2--2--2--2--2--2--2--2--5--5----------------2--2--2--2--
E|--0--0--0--0--0--0--0---------------0--0--0--0--0--0--0--0--0--0----------------0--0--0--0--



E|--------------------6b7--6p4------6--4--------------------------------------------------------
B|------------------------------5v--------5--------------7--------------------8-----------8-----
G|----------------------------------------------------7-----7--------------7-----7-----7-----7--
D|--2--2--2--2--5--5-------------------------------7-----------7-----5--5-----------5-----------
A|--2--2--2--2--5--5-------------------------5--5-----------------5-----------------------------
E|--0--0--0--0--0--0----------------------------------------------------------------------------



E|---------------------------------------------------------------------------------------------
B|-----------7----------------------3----------------------7--------------------8-----------8--
G|--------7-----7----------------3-----3----------------7-----7--------------7-----7-----7-----
D|-----7-----------7----------3-----------3----------7-----------7-----5--5-----------5--------
A|--5----------------------1----------------------5-----------------5--------------------------
E|--------------------5\2--------------------2/5-----------------------------------------------



E|---------------------------------------------------------------------------------------------
B|--------------7----------------------3----------------------7--------------------8-----------
G|--7--------7-----7----------------3-----3----------------7-----7--------------7-----7-----7--
D|--------7-----------7----------3-----------3----------7-----------7-----5--5-----------5-----
A|-----5----------------------1----------------------5-----------------5-----------------------
E|-----------------------5\2--------------------2/5--------------------------------------------



E|----------------------------------------------------------------------------------------------
B|--8--------------7----------------------3-----------------------------------------------------
G|-----7--------7-----7----------------3-----3----------------------9--9--9--9------------------
D|-----------7-----------7----------3-----------3--4/7--7--7--7--7--9--9--9--9--9--9--9--9--12--
A|--------5----------------------1-----------------4-5--7--7--7--7--7--7--7--7--9--9--9--9--12--
E|--------------------------5\2--------------------2-5--5--5--5--5--------------7--7--7--7--10--



E|----------------------------------------------------------------------------------------------
B|----------------------------------------------------------------------------------------------
G|-------------------------------9--9--9--9-----------------------------------------------------
D|--12--12--12--4/7--7--7--7--7--9--9--9--9--9--9--9--9--12--12--12--4--2--2--2--2--2--2--2--2--
A|--12--12--12--4-7--7--7--7--7--7--7--7--7--9--9--9--9--12--12--12--4--2--2--2--2--2--2--2--2--
E|--10--10--10--2-5--5--5--5--5--------------7--7--7--7--10--10--10--2--0--0--0--0--0--0--0--0--



E|--------6b7--6p4------------------------------------6b7--6p4---------------------------------
B|------------------5v------------------------------------------6v-----------------------------
G|---------------------------------------------------------------------------------------------
D|--5--5----------------2--2--2--2--2--2--2--2--5--5----------------2--2--2--2--2--2--2--2--5--
A|--5--5----------------2--2--2--2--2--2--2--2--5--5----------------2--2--2--2--2--2--2--2--5--
E|--0--0----------------0--0--0--0--0--0--0--0--0--0----------------0--0--0--0--0--0--0--0--0--



E|-----6b7--6p4------------------------------------6b7--6p4------------------------------------
B|---------------5v------------------------------------------5v--------------------------------
G|---------------------------------------------------------------------------------------------
D|--5----------------2--2--2--2--2--2--2--2--5--5----------------------------------------------
A|--5----------------2--2--2--2--2--2--2--2--5--5----------------2--2--2--2--4--5--7--7--5--4--
E|--0----------------0--0--0--0--0--0--0--0--0--0----------------0--0--0--0--0--0--0--0--0--0--



E|----------------------------------------------------------------------------------7--10p7--
B|-------------------------------------------------------------------------------7-----------
G|-----------------------------------------------------7--9b10r9b10r9b10r9b10r9--------------
D|---------------------------------------9b10--9v--7v----------------------------------------
A|--2--2--2--4--5--10--10--9--7v--7--7v------------------------------------------------------
E|--0--0--0--0--0--0---0---0--0---0----------------------------------------------------------



E|------7b8----------------------------------------------------------------------------------
B|--10---------------------------------------------------------------------------------------
G|-----------9v--9b10r9--9p7------7v--7\5----------------------------------------------------
D|----------------------------9v-------------------------------------------------------------
A|-----------------------------------------2--2--4--5--7--7--5--4--2--2--7--9--10--10--9--7--
E|-----------------------------------------0--0--0--0--0--0--0--0--0--0--0--0--0---0---0--0--



E|-------------------------------------------------------------------
B|-------------------------------------------------------------------
G|------------------------------------------------------x--\21-15------
D|------------------------------------------------------x---21-15------
A|--7--4--5--7--7--5--4--2--2--7--9--10--10--9--7v--7v--x---21\15--7v--
E|--0--0--0--0--0--0--0--0--0--0--0--0---0---0--0---0------------0---
http://www.guitartabcreator.com
Guitar Tab Creator is intended to store guitar tab created through the tool. It currently does not support in-line text editing. Any text you place in here will be lost. If you need to comment on your tab, please use the "Tab Notes" section located below.