Riff A

(/) Slide Up  (\) Slide Down  (h) Hammer On  (p) Pull Off  (b) Bend (r) Release (v) Vibrato


E|--0--0--0--0--0--0--0--x--x--4--4--x--1--1--1--1--x--x--
B|--0--0--0--0--0--0--0--x--x--4--4--x--1--1--1--1--x--x--
G|--1--1--1--1--1--1--1--x--x--5--5--x--2--2--2--2--x--x--
D|--2--2--2--2--2--2--2--x--x--6--6--x--3--3--3--3--x--x--
A|--2--2--2--2--2--2--2--x--x--6--6--x--3--3--3--3--x--x--
E|--0--0--0--0--0--0--0--x--x--4--4--x--1--1--1--1--x--x--



E|--0--0--0--0--0--0--0--x--x--3--3--x--0--0--0--0--x--x--
B|--0--0--0--0--0--0--0--x--x--5--5--x--2--2--2--2--x--x--
G|--1--1--1--1--1--1--1--x--x--5--5--x--2--2--2--2--x--x--
D|--2--2--2--2--2--2--2--x--x--5--5--x--2--2--2--2--x--x--
A|--2--2--2--2--2--2--2--x--x--3--3--x--0--0--0--0--x--x--
E|--0--0--0--0--0--0--0--x--x--------x--------------x--x--



E|--0--0--0--0--0--0--0--x--x--4--4--x--1--1--1--1--x--x--
B|--0--0--0--0--0--0--0--x--x--4--4--x--1--1--1--1--x--x--
G|--1--1--1--1--1--1--1--x--x--5--5--x--2--2--2--2--x--x--
D|--2--2--2--2--2--2--2--x--x--6--6--x--3--3--3--3--x--x--
A|--2--2--2--2--2--2--2--x--x--6--6--x--3--3--3--3--x--x--
E|--0--0--0--0--0--0--0--x--x--4--4--x--1--1--1--1--x--x--



E|--0--0--0--0--0--0--0--x--x--6--6--x--3--3--3--3--x--x--
B|--0--0--0--0--0--0--0--x--x--8--8--x--5--5--5--5--x--x--
G|--1--1--1--1--1--1--1--x--x--8--8--x--5--5--5--5--x--x--
D|--2--2--2--2--2--2--2--x--x--8--8--x--5--5--5--5--x--x--
A|--2--2--2--2--2--2--2--x--x--6--6--x--3--3--3--3--x--x--
E|--0--0--0--0--0--0--0--x--x--------x--------------x--x--
http://www.guitartabcreator.com
Guitar Tab Creator is intended to store guitar tab created through the tool. It currently does not support in-line text editing. Any text you place in here will be lost. If you need to comment on your tab, please use the "Tab Notes" section located below.