the police

(/) Slide Up  (\) Slide Down  (h) Hammer On  (p) Pull Off  (b) Bend (r) Release (v) Vibrato

E|--------------------------------------------------------------------------------------
B|--------------------------------------------------------------------------------------
G|--------------------------------------------------------------------7-----------------
D|--------5-----------8-----------7-----------6-----------5--------7-----7--------8-----
A|-----5-----5-----8-----8-----7-----7-----6-----6-----5-----5--5--------------8--------
E|--3-----------6-----------5-----------4-----------3-----------------------6-----------



E|--------------------------------------------------------------------------------------
B|--------------------------------------------------------------------------------------
G|--------------------------------7-----------------------------------------------------
D|--------7-----------5--------7-----7--------8-----------7-----------5-----------8-----
A|-----7-----7-----5-----5--5--------------8-----8-----7-----7-----5-----5-----8-----8--
E|--5-----------3-----------------------6-----------5-----------3-----------6-----------



E|--------------------------------3-----------6-----------5-----------4-----
B|--------------------------------3-----------6-----------5-----------4-----
G|--------------------------------4-----------7-----------6-----------5-----
D|--------7-----------6-----------5-----------8-----------7-----------6-----
A|-----7-----7-----6-----6-----5--5--5-----8--8--8-----7--7--7-----6--6--6--
E|--5-----------4-----------3-----3-----6-----6-----5-----5-----4-----4-----



E|--3--5-------------------------------------------------------------------------------
B|--3--5-------------------------------------------------------------------------------
G|--4--6--9--8--7--6--5--4--3----------------------------------------------------------
D|--5--7--9--8--7--6--5--4--3-------------------------------------7--6--5--4--3--2--1--
A|--5--7--7--6--5--4--3--2--1---------7--6--5--4--3--2--1------------------------------
E|--3--5-----------------------3--5v-----------------------3--5v-----------------------



E|--------------------------------------------------------------------------------------5-----
B|-----------------------------------------------------------------------------------5--------
G|--------------------------------------------------------------------------------------------
D|-----------------------------------7--6--5--4--3--2--1-------------------5------5-----------
A|--------7--6--5--4--3--2--1------------------------------------3--5--7v-----7v--------------
E|--3--5-----------------------3--5-----------------------3--5v-------------------------------



E|--8p5-----5-----------------------------------------------------
B|-------8-----8p5------------------------------------------------
G|------------------7v--7p5-----5-----5--7b8r7--7v--7p5------5--5h
D|---------------------------7-----7---------------------7v-------
A|----------------------------------------------------------------
E|----------------------------------------------------------------
http://www.guitartabcreator.com
Guitar Tab Creator is intended to store guitar tab created through the tool. It currently does not support in-line text editing. Any text you place in here will be lost. If you need to comment on your tab, please use the "Tab Notes" section located below.