Melody

(/) Slide Up  (\) Slide Down  (h) Hammer On  (p) Pull Off  (b) Bend (r) Release (v) Vibrato


E|----------------------------------------------------------------------------------------
B|----------------------------------------------------------------------------------------
G|----------------------------------------------------------------------------------------
D|----------------------------------------------------------------------------------------
A|-----5--5--------5---------5--5--------5---------5--5--------5---------5--5--------5--7b
E|--3--------7--7-----7v--3--------7--7-----7v--3--------7--7-----7v--3--------7--7-------



E|----------------------------------------------
B|----------------------------------------------
G|----------------------------------------------
D|----------------------------------------------
A|----------6----------6----------6----------6--
E|--3--3/6-----3--3/6-----3--3/6-----3--3/6-----
http://www.guitartabcreator.com
Guitar Tab Creator is intended to store guitar tab created through the tool. It currently does not support in-line text editing. Any text you place in here will be lost. If you need to comment on your tab, please use the "Tab Notes" section located below.