Drop Song

(/) Slide Up  (\) Slide Down  (h) Hammer On  (p) Pull Off  (b) Bend (r) Release (v) Vibrato


E|------------0------0----------0--0--0--------------0--0--0--------------0--0--0--
B|---------------1v--0----------0--0--0--------------1--1--1--------------1--1--1--
G|--0----------------1-----0h1--1--1--1--------------0--0--0--------------0--0--0--
D|--2----------------2----------2--2--2--------------2--2--2--------------2--2--2--
A|--3----------------2----------2--2--2-----------3--3--3--3-----------2--3--3--3--
E|--0--0--12---------0--0-------0--0--0--0--12\8--------------0--12\8--------------



E|-----------0--0--0-----------0--0--0--------------0--0--0--------------0--0--0--
B|-----------0--0--0-----------0--0--0--------------1--1--1--------------1--1--1--
G|-----------1--1--1--------1--1--1--1--------------0--0--0--------------0--0--0--
D|--------2--2--2--2--------2--2--2--2--------------2--2--2--------------2--2--2--
A|-----2-----2--2--2-----2-----2--2--2-----------2--3--3--3-----------2--3--3--3--
E|--0--------0--0--0--0--------0--0--0--0--12\8--------------0--12\8--------------



E|-----------0--0--0-----------0--0--0-----------0--0--0--------------0--0--0--
B|-----------0--0--0-----------0--0--0-----------1--1--1--------------1--1--1--
G|-----------1--1--1--------1--1--1--1-----------0--0--0--------------0--0--0--
D|--------2--2--2--2--------2--2--2--2-----------2--2--2--------------2--2--2--
A|-----2-----2--2--2-----2-----2--2--2-----2--3--3--3--3-----------2--3--3--3--
E|--0--------0--0--0--0--------0--0--0--0-----------------0--12\8--------------



E|-----------0--0--0-----------0--0--0--0--0--0--0--0--------------------------------
B|-----------0--0--0-----------0--0--0--0--0--0--0--0--6--6--6--6--6--6--6--6--x--x--
G|-----------1--1--1--------1--1--1--1--1--1--1--1--1--6--6--6--6--6--6--6--6--x--x--
D|--------2--2--2--2--------2--2--2--2--2--2--2--2--2--6--6--6--6--6--6--6--6--x--x--
A|-----2-----2--2--2-----2-----2--2--2--2--2--2--2--2--4--4--4--4--4--4--4--4--x--x--
E|--0--------0--0--0--0--------0--0--0--0--0--0--0--0--------------------------------



E|-----------------------------------------------------------------------------------------
B|--9--9--9--9--x--x-----------9--5--5--5--5--5--5--5--x--x--7--7--7--7--x--x-----------7--
G|--9--9--9--9--x--x--------9-----5--5--5--5--5--5--5--x--x--7--7--7--7--x--x--------7-----
D|--9--9--9--9--x--x-----9--------5--5--5--5--5--5--5--x--x--7--7--7--7--x--x-----7--------
A|--7--7--7--7--x--x--7-----------3--3--3--3--3--3--3--x--x--5--5--5--5--x--x--5-----------
E|-----------------------------------------------------------------------------------------



E|--------------------------------------------------------------------------------------
B|--9--5--7--2--2--2--2--2--2--2--2--2--2--2--2--9--5--7--2--2--2--2--2--2--2--2--2--2--
G|--9--5--7--2--2--2--2--2--2--2--2--2--2--2--2--9--5--7--2--2--2--2--2--2--2--2--2--2--
D|--9--5--7--2--2--2--2--2--2--2--2--2--2--2--2--9--5--7--2--2--2--2--2--2--2--2--2--2--
A|--7--3--5--0--0--0--0--0--0--0--0--0--0--0--0--7--3--5--0--0--0--0--0--0--0--0--0--0--
E|--------------------------------------------------------------------------------------



E|--------0--0--0-----------0--0--0-----------0--0--0-----------0--0--0--0--
B|--2--2--1--1--1-----------1--1--1-----------0--0--0-----------0--0--0--0--
G|--2--2--0--0--0-----------0--0--0-----------1--1--1--------1--1--1--1--1--
D|--2--2--2--2--2-----------2--2--2--------2--2--2--2--------2--2--2--2--2--
A|--0--0--3--3--3-----2--3--3--3--3-----2-----2--2--2-----2-----2--2--2--2--
E|-----------------0-----------------0--------0--0--0--0--------0--0--0--0--



E|-----------0--0--0-----------0--0--0--0-----------0--0--0-----------0--0--0--0--0--0--
B|-----------1--1--1-----------1--1--1--1-----------0--0--0-----------0--0--0--0--0--0--
G|-----------0--0--0-----------0--0--0--0-----------1--1--1--------1--1--1--1--1--1--1--
D|-----------2--2--2-----------2--2--2--2--------2--2--2--2--------2--2--2--2--2--2--2--
A|-----2--3--3--3--3-----------3--3--3--3-----2-----2--2--2-----2-----2--2--2--2--2--2--
E|--0-----------------0--12\8--------------0--------0--0--0--0--------0--0--0--0--0--0--



E|--0--0-----------------------------------------------------------------------------------
B|--0--0--6--6--6--6--6--6--6--x--x--9--9--9--9--9--9--9--x--x--6--6--6--6--6--6--6--x--x--
G|--1--1--6--6--6--6--6--6--6--x--x--9--9--9--9--9--9--9--x--x--6--6--6--6--6--6--6--x--x--
D|--2--2--6--6--6--6--6--6--6--x--x--9--9--9--9--9--9--9--x--x--6--6--6--6--6--6--6--x--x--
A|--2--2--4--4--4--4--4--4--4--x--x--7--7--7--7--7--7--7--x--x--4--4--4--4--4--4--4--x--x--
E|--0--0-----------------------------------------------------------------------------------



E|-----------------------------12--8--10--5--12--8--10--7--12--8--10--5--12--8--10--5--
B|--9--9--9--9--9--9--9--x--x----------------------------------------------------------
G|--9--9--9--9--9--9--9--x--x----------------------------------------------------------
D|--9--9--9--9--9--9--9--x--x----------------------------------------------------------
A|--7--7--7--7--7--7--7--x--x----------------------------------------------------------
E|-----------------------------12--8--10--5--12--8--10--7--12--8--10--5--12--8--10--5--



E|--7--12--8--10--5--12--8--10--5--12--8--10--5--7--12--8--10--5--12--8--10--5--7--0--
B|---------------------------------------------------------------------------------0--
G|---------------------------------------------------------------------------------1--
D|---------------------------------------------------------------------------------2--
A|---------------------------------------------------------------------------------2--
E|--7--12--8--10--5--12--8--10--5--12--8--10--5--7--12--8--10--5--12--8--10--5--7--0--



E|--0--0--0--0--0--0--x--x-----------0--0--0--x--0--0--0--0--0--0--x--x-----------0--
B|--0--0--0--0--0--0--x--x--9--9--x--1--1--1--x--0--0--0--0--0--0--x--x--9--9--x--1--
G|--1--1--1--1--1--1--x--x--9--9--x--0--0--0--x--1--1--1--1--1--1--x--x--9--9--x--0--
D|--2--2--2--2--2--2--x--x--9--9--x--2--2--2--x--2--2--2--2--2--2--x--x--9--9--x--2--
A|--2--2--2--2--2--2--x--x--7--7--x--3--3--3--x--2--2--2--2--2--2--x--x--7--7--x--3--
E|--0--0--0--0--0--0--x--x-----------------------0--0--0--0--0--0--x--x--------------



E|--0--0--0--x--x--0--0--0--0--0--0--0--x--x-----------0--0--0--0--x--x--0--0--0--0--
B|--1--1--1--x--x--0--0--0--0--0--0--0--x--x--9--9--x--1--1--1--1--x--x--0--0--0--0--
G|--0--0--0--x--x--1--1--1--1--1--1--1--x--x--9--9--x--0--0--0--0--x--x--1--1--1--1--
D|--2--2--2--x--x--2--2--2--2--2--2--2--x--x--9--9--x--2--2--2--2--x--x--2--2--2--2--
A|--3--3--3--x--x--2--2--2--2--2--2--2--x--x--7--7--x--3--3--3--3--x--x--2--2--2--2--
E|-----------------0--0--0--0--0--0--0--x--x-----------------------------0--0--0--0--



E|--0--0--0--x--x-----------0--0--0--0--0--x--x-----
B|--0--0--0--x--x--9--9--x--0--0--0--0--0--x--x--9--
G|--1--1--1--x--x--9--9--x--1--1--1--1--1--x--x--9--
D|--2--2--2--x--x--9--9--x--2--2--2--2--2--x--x--9--
A|--2--2--2--x--x--7--7--x--3--3--3--3--3--x--x--7--
E|--0--0--0--x--x-----------------------------------
http://www.guitartabcreator.com
Guitar Tab Creator is intended to store guitar tab created through the tool. It currently does not support in-line text editing. Any text you place in here will be lost. If you need to comment on your tab, please use the "Tab Notes" section located below.