Love me tender

(/) Slide Up  (\) Slide Down  (h) Hammer On  (p) Pull Off  (b) Bend (r) Release (v) Vibrato


E|------------------------
B|------------------------
G|------------------------
D|------------------------
A|-----------------7--12--
E|--0--5--4--5--7---------



E|-------------------
B|-------------------
G|-------------------
D|-------------------
A|--10--9--7--9--10--
E|-------------------



E|-----------------------
B|-----------------------
G|-----------------------
D|-----------------------
A|--5--------------7-----
E|-----5--4--5--7-----7--



E|-----------------
B|-----------------
G|-----------------
D|-----------------
A|-----------------
E|--5--4--2--4--5--
http://www.guitartabcreator.com
Guitar Tab Creator is intended to store guitar tab created through the tool. It currently does not support in-line text editing. Any text you place in here will be lost. If you need to comment on your tab, please use the "Tab Notes" section located below.