gminorpentatonic12bar4/4

(/) Slide Up  (\) Slide Down  (h) Hammer On  (p) Pull Off  (b) Bend (r) Release (v) Vibrato


E|--------------------------------------------------
B|--------------------------------------------------
G|--------------------------------------------------
D|--------2-----------2-----------2-----------2-----
A|--5--5-----5--4--5-----5--4--5-----5--4--5-----5--
E|--3--3-----3--3--3-----3--3--3-----3--3--3-----3--



E|--------------------------------------------------
B|--------------------------------------------------
G|--------2-----------2-----------2-----------2-----
D|--4--5-----5--4--5-----5--4--5-----5--4--5-----5--
A|--3--3-----3--3--3-----3--3--3-----3--3--3-----3--
E|--------------------------------------------------



E|--------------------------------------------------
B|--------------------------------------------------
G|--------------------------------------------------
D|--------2-----------2-----------2-----------2-----
A|--4--5-----5--4--5-----5--4--5-----5--4--5-----5--
E|--3--3-----3--3--3-----3--3--3-----3--3--3-----3--



E|--------------------------------------------------
B|--------------------------------------------------
G|--------4-----------4-----------2-----------2-----
D|--6--7-----7--6--7-----7--4--5-----5--4--5-----5--
A|--5--5-----5--5--5-----5--3--3-----3--3--3-----3--
E|--------------------------------------------------



E|--------------------------------------------------
B|--------------------------------------------------
G|--------------------------------------------------
D|--------2-----------2-----------2-----------2-----
A|--4--5-----5--4--5-----5--4--5-----5--4--5-----5--
E|--3--3-----3--3--3-----3--3--3-----3--3--3-----3--
http://www.guitartabcreator.com
Guitar Tab Creator is intended to store guitar tab created through the tool. It currently does not support in-line text editing. Any text you place in here will be lost. If you need to comment on your tab, please use the "Tab Notes" section located below.