distortedcmajorchord-distorteddmajorchordtransition+distortedaminorpentatoniclick

(/) Slide Up  (\) Slide Down  (h) Hammer On  (p) Pull Off  (b) Bend (r) Release (v) Vibrato


E|--3--3--3--3--3--3--3--3--3--5--5--5--5--5----------------
B|--5--5--5--5--5--5--5--5--5--7--7--7--7--7----------------
G|--5--5--5--5--5--5--5--5--5--7--7--7--7--7--7b9--7p5------
D|--5--5--5--5--5--5--5--5--5--7--7--7--7--7------------7v--
A|--3--3--3--3--3--3--3--3--3--5--5--5--5--5----------------
E|----------------------------------------------------------



E|--3--3--3--3--3--3--3--3--3--5--5--5--5--5--8p5-----5-----5b6--
B|--5--5--5--5--5--5--5--5--5--7--7--7--7--7-------8-----8-------
G|--5--5--5--5--5--5--5--5--5--7--7--7--7--7---------------------
D|--5--5--5--5--5--5--5--5--5--7--7--7--7--7---------------------
A|--3--3--3--3--3--3--3--3--3--5--5--5--5--5---------------------
E|---------------------------------------------------------------
http://www.guitartabcreator.com
Guitar Tab Creator is intended to store guitar tab created through the tool. It currently does not support in-line text editing. Any text you place in here will be lost. If you need to comment on your tab, please use the "Tab Notes" section located below.