distortedaminorpentatonicsolo

(/) Slide Up  (\) Slide Down  (h) Hammer On  (p) Pull Off  (b) Bend (r) Release (v) Vibrato


E|--8/10b11--10p8------8v-------------8------------10/12--12b13r12v--12p10------10-------------
B|-----------------10------10p8--10v-----10p8-------------------------------12------12p10h12v--
G|---------------------------------------------9v----------------------------------------------
D|---------------------------------------------------------------------------------------------
A|---------------------------------------------------------------------------------------------
E|---------------------------------------------------------------------------------------------



E|------------------------8p5-----5--8p5-----5b6r5----------------------
B|--12\8------8b9r8v--5v-------8----------8-----------------------------
G|--------9v------------------------------------------------------------
D|----------------------------------------------------------------------
A|----------------------------------------------------------------------
E|--------------------------------------------------5v--5v--5v--5v--5v--
http://www.guitartabcreator.com
Guitar Tab Creator is intended to store guitar tab created through the tool. It currently does not support in-line text editing. Any text you place in here will be lost. If you need to comment on your tab, please use the "Tab Notes" section located below.