Yuna's Ballad

(/) Slide Up  (\) Slide Down  (h) Hammer On  (p) Pull Off  (b) Bend (r) Release (v) Vibrato

E|-0-8--10-7--0-|-5--7-3--1-|-3-1-0--------|-----|-
B|---10----8----|-5----3----|-1-1---1----1-|-1-3-|-
G|---10----9----|-5----4----|-2-2------2---|-2-4-|-
D|--------------|-----------|--------------|-3-6-|-
A|--------------|-----------|--------------|-----|-
E|--------------|-----------|--------------|-----|-



E|---------|--------------3-|-3--------3---|---------|-
B|-----0-1-|-----0-3--------|-----0-1------|-----0-3-|-
G|-------2-|-------2--0-0---|-------2----0-|-------2-|-
D|---2---3-|---2---3--------|---2---3------|---2---3-|-
A|-0-------|-0--------------|-0------------|-0-------|-
E|---------|----------------|--------------|---------|-



E|-----3-0----|-------0------|----------------|--------------|-
B|-----0-1--1-|-3-1-3-1--1---|---1-1--------1-|-0---1-0------|-
G|---0---2----|-----4-2----0-|-2-----0--------|-0-----0----0-|-
D|---2---3----|---2---3------|-3-----2----2---|-0-2---0--2---|-
A|-0----------|-0------------|-3-----2--3-----|-0------------|-
E|------------|--------------|----------------|-------3------|-



E|-----3-0------|-------0---------|-1-3-0-----|-8-7-3---|-
B|-------1----1-|-3-1-3-------1-3-|-1-----1---|-6---0-1-|-
G|---0---0------|-2---------------|-0-0---2---|---7-----|-
D|-----3------2-|-3---0-----3-3---|-----------|-------3-|-
A|---3------3---|---0-------------|-3---3-3---|---------|-
E|-1-----0------|---------3-------|-------1---|---------|-



E|------------3-|------------3-0-|----------8-7-3-|---------|-
B|-----0-1------|-----0-3--------|-----0-1--------|-----0-3-|-
G|-------2--0---|-------2--0-----|-------2--------|-------2-|-
D|---2---3------|---2---3--------|---2---3--------|---2---3-|-
A|-0------------|-0--------------|-0--------------|-0-------|-
E|--------------|----------------|----------------|---------|-



E|-----3-0----|-------0------|----------------|--------------|-
B|-----0-1--1-|-3-1-3-1--1---|---1-1--------1-|-0---1-0------|-
G|---0---2----|-2---4-2----0-|-2-----0--------|-0-----0----0-|-
D|---2---3----|-0-2---3------|-3-----2----2---|-0-2---0--2---|-
A|-0----------|-0------------|-3-----2--3-----|-0------------|-
E|------------|--------------|----------------|-------3------|-



E|-----3-0-----|-------0--------|-1-3-0----|-8-7-3-----|-
B|-------1---1-|-3-1-3------1-3-|-1-----1--|-6---1-3-1-|-
G|-0-0---0-----|-2-------4------|-0-0---2--|---7---0---|-
D|-----------2-|-3---0---3------|-------3--|---------3-|-
A|-3-------3---|---0------------|-3---3----|-----------|-
E|-1-----0-----|---------3------|-------1--|-----------|-
http://www.guitartabcreator.com
Guitar Tab Creator is intended to store guitar tab created through the tool. It currently does not support in-line text editing. Any text you place in here will be lost. If you need to comment on your tab, please use the "Tab Notes" section located below.