Wit's End

(/) Slide Up  (\) Slide Down  (h) Hammer On  (p) Pull Off  (b) Bend (r) Release (v) Vibrato
E|---0---------0-----0-----------0-----------|---0------------------0-----------0---------3-|-
B|-3---3-1-------3-0---3-1-0-1-----3-1-0-1---|-3---3-1--------3-1-0---3-1-0-1-----3-1-0-1---|-
G|---------2-------------------2-----------2-|---------2--0-2-----------------2-------------|-
D|-------------------------------------------|----------------------------------------------|-
A|-------------------------------------------|----------------------------------------------|-
E|-------------------------------------------|----------------------------------------------|-



E|-0h1h0----------------------|----------|---
B|-----------3h5h3----1h3h1---|-1--------|---
G|----------------------------|-2-4-1----|-2-
D|----------------------------|---5-2----|---
A|----------------------------|----------|---
E|----------------------------|----------|---



E|---------------------------------|---------------------------------|-
B|---1---1---1---1-----------------|---------------------------------|-
G|-2---2---2---2-----4---4---4---4-|---2---2---2---2---1---1---1---1-|-
D|-----------------5---5---5---5---|-3---3---3---3---2---2---2---2---|-
A|---------------------------------|---------------------------------|-
E|---------------------------------|---------------------------------|-



E|-5--8--8-7-8-7--3-|-5--8--10-8-7--0-|-5--8--10-12--10--8--|-5--7-8-7--7h8-7-3-0-|-5-
B|------------------|-----------------|---------------------|---------------------|---
G|------------------|-----------------|---------------------|---------------------|---
D|------------------|-----------------|---------------------|---------------------|---
A|------------------|-----------------|---------------------|---------------------|---
E|------------------|-----------------|---------------------|---------------------|---
http://www.guitartabcreator.com
Guitar Tab Creator is intended to store guitar tab created through the tool. It currently does not support in-line text editing. Any text you place in here will be lost. If you need to comment on your tab, please use the "Tab Notes" section located below.