Ven v2

(/) Slide Up  (\) Slide Down  (h) Hammer On  (p) Pull Off  (b) Bend (r) Release (v) Vibrato


E|-0----4-2--2-7-|-9----|-0--0-2-4-0-----|---4-2-11-9-|-
B|----2----------|----4-|------------2-0-|-2----------|-
G|---------------|------|----------------|------------|-
D|---------------|------|----------------|------------|-
A|---------------|------|----------------|------------|-
E|---------------|------|----------------|------------|-



E|--------|-0--------|--------|--------------|---|-
B|--0-2-4-|----2-0---|------0-|-------0-2--4-|-2-|-
G|--------|--------2-|-2--1---|-2-1-2--------|---|-
D|--------|----------|--------|--------------|---|-
A|--------|----------|--------|--------------|---|-
E|--------|----------|--------|--------------|---|-



E|-0----4-2--0---|------|-0--0-2-4-0-----|------0-|-
B|----2--------4-|-2--4-|------------2-0-|-2--4---|-
G|---------------|------|----------------|--------|-
D|---------------|------|----------------|--------|-
A|---------------|------|----------------|--------|-
E|---------------|------|----------------|--------|-



E|-2------7-2-|-0-2/0------5-0-|---0-2-7--5-3-|-2----2-0------|----------|-
B|---0--0-----|----------------|-4------------|----0------3-2-|-0----2/4-|-
G|------------|-------2--2-----|--------------|---------------|----------|-
D|------------|----------------|--------------|---------------|----------|-
A|------------|----------------|--------------|---------------|----------|-
E|------------|----------------|--------------|---------------|----------|-



E|-
B|-
G|-
D|-
A|-
E|-
http://www.guitartabcreator.com
Guitar Tab Creator is intended to store guitar tab created through the tool. It currently does not support in-line text editing. Any text you place in here will be lost. If you need to comment on your tab, please use the "Tab Notes" section located below.