swrtm v1

(/) Slide Up  (\) Slide Down  (h) Hammer On  (p) Pull Off  (b) Bend (r) Release (v) Vibrato

E|--------|---------|---------|---------|--------|-
B|--------|---------|---------|---------|--------|-
G|--------|---------|---------|---------|--------|-
D|--------|-----2---|-----0---|---------|--------|-
A|-0------|-0-3---3-|---2-----|---0-3-0-|--0---2-|-
E|---3-1--|---------|-3-----3-|-1-------|----3---|-



E|--------------------------------|-
B|--------------------------------|-
G|--------------------------------|-
D|-----2-------0------------------|-
A|-0-3---0---2-------0-3----0---2-|-
E|---------3-----3-1-----1----3---|-



E|---------------------------------|---------------------------------|-3/5--3--0-|---
B|-1-1-0-0-1-1-1-1-1-1-0-0-1-1-1-1-|-1---1---0---0---1---1---1---0---|-----------|---
G|---------------------------------|---------------------------------|-----------|---
D|---------------------------------|-----2-------0-------------------|-----------|---
A|---------------------------------|-0-3---0---2-------0-3-----0---2-|-----------|---
E|---------------------------------|---------3-----3-1-----1-----3---|-----------|---



E|-0-0-----------------|-
B|-----3-3-1-1-0-0-----|-
G|-----------------2-2-|-
D|---------------------|-
A|---------------------|-
E|---------------------|-



E|--------------------|-----|----------------------|-0-0-0--------1--0-0--------------------
B|-1-1-1-0--0-0-0-1-1-|-1-3-|-1-1-1------------1-1-|-------3--3-3--------3-3-1-1----------0-
G|--------------------|-----|-------3/4--4-4-4-----|-----------------------------2--0--2----
D|--------------------|-3-3-|----------------------|----------------------------------------
A|--------------------|-3-2-|----------------------|----------------------------------------
E|--------------------|-----|----------------------|----------------------------------------



E|-0-0-0--------1-1-0-----------------------|-0-0-0-------1-0-0-------------------|-
B|-------3--3----------3-3-1-1----------0-0-|-------3-3-3-------3-3-1-1-----------|-
G|-----------------------------2--0--2------|---------------------------2-0-2p4-4-|-
D|------------------------------------------|-------------------------------------|-
A|------------------------------------------|-------------------------------------|-
E|------------------------------------------|-------------------------------------|-



E|-0-0-0-0--0-0-2--0----------|-0-0-0-0--0-0-2--0-0---------------|---|-
B|--------------------2--0----|---------------------2-2-0---------|---|-
G|-------------------------2--|-----------------------------2-----|---|-
D|----------------------------|-------------------------------4-2-|---|-
A|----------------------------|-----------------------------------|-0-|-
E|----------------------------|-----------------------------------|---|-



E|-0-0-----------0----------|--0-0---------------------|--0-0-----------------------|-
B|-----2-2----0-----2--0----|------2-2----0--0-0h2-0---|------2-2---0--0--2--0------|-
G|----------2------------2--|-----------2--------------|----------2------------2-2--|-
D|--------------------------|------------------------4-|----------------------------|-
A|--------------------------|--------------------------|----------------------------|-
E|--------------------------|--------------------------|----------------------------|-



E|-----------------|---------------------------------------|-0-0-0-------1-0-0---------------------
B|-----0-2-0---0---|-1-1-0-0-0-0-0-1-1-1-1-0-0-0-0-0--1----|-------3-3-3-------3-3-1-1-------------
G|-2-2-------2---2-|------------------------------------2--|---------------------------2-0-0-2h4-4-
D|-----------------|---------------------------------------|---------------------------------------
A|-----------------|---------------------------------------|---------------------------------------
E|-----------------|---------------------------------------|---------------------------------------



E|----------------------------------------------------|---------------------------------
B|-0-0-0--0--0/2--2-2-2---------0-1/2-0---0-1/2-------|---------------------------3-2-0-
G|----------------------2-1/2-2---------2-------4-3/4-|-4-4-4-4-4-4/6-6-6-6/2-2-2-------
D|----------------------------------------------------|---------------------------------
A|----------------------------------------------------|---------------------------------
E|----------------------------------------------------|---------------------------------



E|-------|-|-0-0-----------0---------|-0-0---------------------|-0-0---------------------|-
B|-------|-|-----2-1/2---0---1/2-0---|-----2-1/2---------------|-----2-2---0-0h2-2-0-----|-
G|-2-2h4-|-|-----------2-----------2-|-----------2-2/4-4-6-4---|---------2-----------2-2-|-
D|-------|-|-------------------------|-----------------------4-|-------------------------|-
A|-------|-|-------------------------|-------------------------|-------------------------|-
E|-------|-|-------------------------|-------------------------|-------------------------|-



E|-0-0-----------0-------|-
B|-----2-1/2-------2-0---|-
G|-----------2/4-------2-|-
D|-----------------------|-
A|-----------------------|-
E|-----------------------|-
http://www.guitartabcreator.com
Guitar Tab Creator is intended to store guitar tab created through the tool. It currently does not support in-line text editing. Any text you place in here will be lost. If you need to comment on your tab, please use the "Tab Notes" section located below.