Sweet Peach

(/) Slide Up  (\) Slide Down  (h) Hammer On  (p) Pull Off  (b) Bend (r) Release (v) Vibrato

E|-----------------|---------------0-|-1-----3---1---|-0---0---0---0---|-|-0-----0-----0---|-
B|---1---1---0-----|---1---1---0-----|---3-3---0---0-|-----------------|-|---1-----1-----1-|-
G|-2---2---1---1---|-2---2---1---1---|---------------|---2---2---2---2-|-|-----2-----2-----|-
D|---------------2-|-----------------|---------------|-----------------|-|-----------------|-
A|-----------------|-----------------|---------------|-----------------|-|-----------------|-
E|-----------------|-----------------|---------------|-----------------|-|-----------------|-



E|-2--------0------|------------|-------------------|-
B|---3---------3/2-|-3----------|-------------------|-
G|-2---2-1---------|----2-1-----|---0----0-2-0------|-
D|-----------------|---------2--|-4------------4--0-|-
A|-----------------|------------|-------------------|-
E|-----------------|------------|-------------------|-



E|-----------------|-----------|--------|-
B|-----------------|-----------|------3-|-
G|-----------------|-----------|--------|-
D|-4-0------2------|-----------|--------|-
A|-----0-------5/4-|-5---------|--------|-
E|-------4---------|----5-4--0-|-2-3----|-
http://www.guitartabcreator.com
Guitar Tab Creator is intended to store guitar tab created through the tool. It currently does not support in-line text editing. Any text you place in here will be lost. If you need to comment on your tab, please use the "Tab Notes" section located below.