SotC - Prologue

(/) Slide Up  (\) Slide Down  (h) Hammer On  (p) Pull Off  (b) Bend (r) Release (v) Vibrato

E|-------1-3-5-3-1-3-1---1-------|-----|----|-3--1----|-3--1---|-
B|-----3---------------3---4-3---|-3---|----|---------|--------|-
G|---2---------------------------|-5---|-2--|---------|--------|-
D|-0-----------------------------|-0---|-3--|---------|--------|-
A|-------------------------------|-----|-5--|---------|--------|-
E|-------------------------------|-----|----|---------|--------|-



E|---------1-3-5-6-5-3-1------1-----|----------|---------|-------|----|-6-5---|-6-8-6--5----|-
B|-----3-4---------------4-3-----4--|-3--1-3---|---------|-1-----|----|-------|-------------|-
G|---2------------------------------|----------|-0---0-2-|-2--2--|-3--|-------|-------------|-
D|-0--------------------------------|-0--------|---3-----|-0--3--|-5--|-------|-------------|-
A|----------------------------------|----------|-5-------|----5--|-5--|-------|-------------|-
E|----------------------------------|----------|---------|-------|----|-------|-------------|-



E|-----------------------------|----------------|---|---|-3-1---|-3-1---|-
B|-----------------------------|----------------|---|---|-------|-------|-
G|---------0-2-3-2--0---0------|-0--------0--2--|-3-|-2-|-------|-------|-
D|---0-1-3------------3----1-3-|-0---0-3--------|-5-|-3-|-------|-------|-
A|-----------------------------|---3------------|-5-|-5-|-------|-------|-
E|-3---------------------------|-3--------------|-3-|-3-|-------|-------|-



E|-7-8-5-6-3-5---3------|-7-8-5-6-3-5---3--------|---------|-1-------|---------------|-
B|-3-----------6---6-4--|-3-----------6---6-4-3--|-6-4-3---|---4-3---|-------1-------|-
G|-0--------------------|-0----------------------|-3-------|-0-------|-0-2-3---3--2--|-
D|----------------------|------------------------|-5-------|---------|---------------|-
A|----------------------|------------------------|---------|-1-------|-5-------------|-
E|----------------------|------------------------|---------|---------|-3-------------|-



E|---------------|-----------------|---------------|-
B|---------------|-----------------|---------------|-
G|---0-2-3-2-----|-0---0-2-3-2--0--|---0-2-3-2--0--|-
D|-3----------5--|-0-3-------------|-3-------------|-
A|-5-------------|---5-------------|-5-------------|-
E|-3-------------|-3-1-------------|-3-------------|-
http://www.guitartabcreator.com
Guitar Tab Creator is intended to store guitar tab created through the tool. It currently does not support in-line text editing. Any text you place in here will be lost. If you need to comment on your tab, please use the "Tab Notes" section located below.