Sons Of Odin v1

(/) Slide Up  (\) Slide Down  (h) Hammer On  (p) Pull Off  (b) Bend (r) Release (v) Vibrato

E|------------------|-----------------|---4----6--4----6--8-|-
B|--------------1---|-----------------|-4----4-------4------|-
G|-2----0--2-3----2-|-2----0----------|---------------------|-
D|----3-------------|----3----2-0-----|---------------------|-
A|------------------|--------------3--|---------------------|-
E|------------------|-----------------|---------------------|-



E|-5---3---5-1-0--|-5---3---5/6--|-5--1-3--5-6--8-5-|-5--1-3----|---
B|---3------------|---3----------|------------------|---------5-|---
G|----------------|--------------|------------------|-----------|---
D|----------------|--------------|------------------|-----------|---
A|----------------|--------------|------------------|-----------|---
E|----------------|--------------|------------------|-----------|---



E|-5--1-3--5-6--8-5-|-5--1-3----------|---5--5-----5-----|--5-----5-----|-
B|-3----------------|---------5-3--1--|--------6-----6---|----6-----6---|-
G|------------------|-----------------|----------7-----7-|------7-----7-|-
D|------------------|-----------------|------------------|--------------|-
A|------------------|-----------------|------------------|--------------|-
E|------------------|-----------------|------------------|--------------|-



E|---------------|-----------------|-1-|---|-1-|-
B|-----------1---|-------1-1-------|---|---|---|-
G|-2---0-2-3---2-|-2---0-----3-2-0-|---|---|-2-|-
D|---3-----------|---3---2-0-------|-3-|-0-|-3-|-
A|---------------|---------------3-|---|---|-3-|-
E|---------------|-----------------|---|---|---|-
http://www.guitartabcreator.com
Guitar Tab Creator is intended to store guitar tab created through the tool. It currently does not support in-line text editing. Any text you place in here will be lost. If you need to comment on your tab, please use the "Tab Notes" section located below.