A Song Called Eddie

(/) Slide Up  (\) Slide Down  (h) Hammer On  (p) Pull Off  (b) Bend (r) Release (v) Vibrato
E|-----------------|-----------------|------------|------------------------|-
B|-----------------|-----------------|------------|---2--0---3-2-0-2--3-0--|-
G|-----------------|-----------------|----1--3----|------------------------|-
D|---2-0-2---2-0-2-|---2-0-2-4--2-0--|-4--------4-|-4------4---------------|-
A|-0---------------|-----------------|------------|------------------------|-
E|---------4-------|-3---------------|------------|------------------------|-



E|---------------------------------------|-
B|---------------------------------------|-
G|---2-1---0-2---------------------------|-
D|-4-----2-----4--2-0-2-3--3-2---2-------|-
A|-----------------------------0---4-0-5-|-
E|---------------------------------------|-



E|-----------------|------------------|----------------------|---
B|-----------------|------------------|----------------------|---
G|-----------------|------------------|----------------------|---
D|---3-2-3---3-2-3-|---3-2-3-5--3-2-3-|---3-2-3----3-2-3-5-3-|---
A|-5-------3-------|-2----------------|-2-------1------------|---
E|-----------------|------------------|----------------------|---



E|------------------------------------------------------------------------
B|------------------------------------------------------------------------
G|----------------------------------------------2-0-0---------------------
D|-0/7-0-0-0-3-5-3-2-----2-3-2-2-0--------------------3-2-0---0-2-0-0-----
A|-------------------0-0-----------0-5--5-5-4-0-------------0---------4-0-
E|------------------------------------------------------------------------



E|----------------------|-----------|-
B|------------------1---|---1---1---|-
G|-2-0--0/2-2-2-2-2---2-|-2---2---2-|-
D|----------------------|-----------|-
A|----------------------|-----------|-
E|----------------------|-----------|-



E|-----------------------------|----------|---------------|-
B|-3--1----1-------------------|-1-----1--|-1-----1---1---|-
G|-------2----0----0-2-0-------|----2-----|----2----2---2-|-
D|---------------3-------3-0---|----------|---------------|-
A|---------------------------3-|----------|---------------|-
E|-----------------------------|----------|---------------|-
http://www.guitartabcreator.com
Guitar Tab Creator is intended to store guitar tab created through the tool. It currently does not support in-line text editing. Any text you place in here will be lost. If you need to comment on your tab, please use the "Tab Notes" section located below.