sleepy driver

(/) Slide Up  (\) Slide Down  (h) Hammer On  (p) Pull Off  (b) Bend (r) Release (v) Vibrato


E|-------0-----------0-----|-------0-----|-2-----0--------------5-----|-0-----0-------------0-----
B|-----3---3-------3---3---|-----2---2---|-----3---3----------3---3---|-----2---2-----3---2---2---
G|---4-------4---4-------4-|---2-------2-|---4-------4------4-------4-|---2-------2-----2-------2-
D|-4-----------4-----------|-2-----------|-4--------------4-----------|-2-------------2-----------
A|-------------------------|-------------|----------------------------|---------------------------
E|-------------------------|-------------|----------------------------|---------------------------



E|---------0-----|---------0-----|-----------------------|---0-0---0-0---0-0---0-0-|---0-0---0-0-
B|-0---0h3---3---|-----0h2---2---|-2h3-2-2-3-2-3-2-3-2-3-|-2-----2-----2-----2-----|-2-----2-----
G|---4---------4-|-2-2---------2-|-----------------------|-------------------------|-------------
D|-4-------------|-2-------------|-4---------------------|-2-----------------------|-------------
A|---------------|---------------|-----------------------|-------------------------|-0-----------
E|---------------|---------------|-----------------------|-------------------------|-------------



E|-10-9--5-5-4-|-10-9--5-5-4---|-
B|-------------|-------------5-|-
G|-------------|---------------|-
D|-------------|---------------|-
A|-------------|---------------|-
E|-------------|---------------|-
http://www.guitartabcreator.com
Guitar Tab Creator is intended to store guitar tab created through the tool. It currently does not support in-line text editing. Any text you place in here will be lost. If you need to comment on your tab, please use the "Tab Notes" section located below.