Sherlock (Violin)

(/) Slide Up  (\) Slide Down  (h) Hammer On  (p) Pull Off  (b) Bend (r) Release (v) Vibrato


E|-------------------|-----|---------------|-----|-0----------------|-----|---
B|-------------------|---0-|---0---0---0-2-|-0-3-|---0--0-2-3-2h3-0-|-5-0-|---
G|---2---2-1-2-3---2-|-0---|-0-------6-----|-----|------------------|-----|---
D|-2-----------------|-----|---------------|-----|------------------|-----|---
A|-------------------|-----|---------------|-----|------------------|-----|---
E|-------------------|-----|---------------|-----|------------------|-----|---



E|-------------------------------
B|-0-2-3-3-5-2-2-3-0-0-2-------0-
G|-----------------------6-3-2---
D|-------------------------------
A|-------------------------------
E|-------------------------------
http://www.guitartabcreator.com
Guitar Tab Creator is intended to store guitar tab created through the tool. It currently does not support in-line text editing. Any text you place in here will be lost. If you need to comment on your tab, please use the "Tab Notes" section located below.