Scarecrow (Violin)

(/) Slide Up  (\) Slide Down  (h) Hammer On  (p) Pull Off  (b) Bend (r) Release (v) Vibrato


E|------------------|--------------------|-------------|------------------|-
B|------------------|--------------------|-------------|------------------|-
G|------------------|---2-0--------------|---0-2-0-----|-----0-2------0-0-|-
D|-5-5-5-4-5-4-2----|-0-----5-4-5-5-4-2--|-5-------5-2-|-5-5-----5-2------|-
A|------------------|--------------------|-------------|------------------|-
E|------------------|--------------------|-------------|------------------|-



E|--------------------|------------------------|------------------------|---------------------|-
B|-----3-2------------|-----3-2----------------|-----3-2----------------|-----3-2-------------|-
G|---------0-0----0-2-|---------0-0----0-2-3-5-|---------2-0------0-2---|---------0-0---------|-
D|-5-5----------5-----|-5-5----------5---------|-5-5----------5-5-----2-|-5-5---------5-3-2-0-|-
A|--------------------|------------------------|------------------------|---------------------|-
E|--------------------|------------------------|------------------------|---------------------|-



E|-
B|-
G|-
D|-
A|-
E|-
http://www.guitartabcreator.com
Guitar Tab Creator is intended to store guitar tab created through the tool. It currently does not support in-line text editing. Any text you place in here will be lost. If you need to comment on your tab, please use the "Tab Notes" section located below.