Saiya's Theme

(/) Slide Up  (\) Slide Down  (h) Hammer On  (p) Pull Off  (b) Bend (r) Release (v) Vibrato
E|------------------------------------|--------------------------------------|-
B|-0-0-0----3---5---5---3--5--3--0--3-|-0------0---0-----------0-------------|-
G|------------------------------------|----2----------2--0--2-----2--0-----0-|-
D|------------------------------------|---------------------------------2----|-
A|------------------------------------|--------------------------------------|-
E|------------------------------------|--------------------------------------|-



E|------------------------------------|--------------------------------------|-
B|-0-0-0----3---5---5---3--5--3--0--3-|-0------0---0-----------0-------------|-
G|------------------------------------|----2----------2--0--2-----2--0-------|-
D|------------------------------------|---------------------------------0--2-|-
A|------------------------------------|--------------------------------------|-
E|------------------------------------|--------------------------------------|-



E|-------------------|-------------------|---------------|---------------|-
B|-------------------|-------------------|-1-1-0---------|-1-1-0---------|-
G|-0--0------0--0----|-0--0------0--0----|-2-2-2---4-4-2-|-2-2-2---4-4-2-|-
D|-------4---------2-|-------4---------2-|---------5-5-5-|---------5-5-5-|-
A|-------------------|-------------------|---------------|---------------|-
E|-------------------|-------------------|---------------|---------------|-



E|-------------|----------------|-|-|-|--------------|-|-0------------|-
B|-------------|----------------|-|-|-|-3------------|-|--------------|-
G|-----0h2-0---|----------------|-|-|-|--------------|-|--------------|-
D|-0h2-------2-|-2-2--2---2-2-2-|-|-|-|-2-2-2--2-2-2-|-|-2-2-2--2-2-2-|-
A|-------------|----------------|-|-|-|--------------|-|--------------|-
E|-------------|----------------|-|-|-|--------------|-|--------------|-
http://www.guitartabcreator.com
Guitar Tab Creator is intended to store guitar tab created through the tool. It currently does not support in-line text editing. Any text you place in here will be lost. If you need to comment on your tab, please use the "Tab Notes" section located below.