****'s theme v3

(/) Slide Up  (\) Slide Down  (h) Hammer On  (p) Pull Off  (b) Bend (r) Release (v) Vibrato
E|-8--5--3-3-5----0-1-3-5---0-1-3-5--------|-
B|--------------3---------3---------3--3-1-|-
G|-----------------------------------------|-
D|-----------------------------------------|-
A|-----------------------------------------|-
E|-----------------------------------------|-



E|---------|---------------3-----5-|-3-3-3-3---5-5-----
B|-----0---|---------0-1-5---1-5---|-5-1-1-5---0-5-----
G|-0-3-----|---5---0---------------|-5-0-5-0---0-0-----
D|-------0-|-3---3-----------------|-3-3-3-3---3-3-----
A|---------|-----------------------|-------------------
E|---------|-----------------------|-------------------



E|-------0h1---1h3-|-3-5-6-5-3-1-5-|-
B|-1h3-------------|-------------3-|-
G|-----------------|-------------2-|-
D|-----------------|-------------0-|-
A|-----------------|---------------|-
E|-----------------|---------------|-



E|-|-5-|-0-|-0---0-
B|-|-6-|-1-|-3---3-
G|-|-7-|-0-|-2---2-
D|-|-5-|-2-|-0---0-
A|-|-5-|-3-|-0---3-
E|-|-6-|-0-|-0---0-
http://www.guitartabcreator.com
Guitar Tab Creator is intended to store guitar tab created through the tool. It currently does not support in-line text editing. Any text you place in here will be lost. If you need to comment on your tab, please use the "Tab Notes" section located below.