****'s Theme v2

(/) Slide Up  (\) Slide Down  (h) Hammer On  (p) Pull Off  (b) Bend (r) Release (v) Vibrato


E|---1-----1----3---|----|---------|----------|-
B|-3-----3--------3-|----|---------|----------|-
G|--------------0---|----|-----0---|-----2----|-
D|------------------|----|---0-----|---0------|-
A|---1-----1--------|----|-1-------|-1--------|-
E|------------------|----|---------|----------|-



E|---|-1---------1-------3--------|-1---------1-------3---5-6-5-3-|-
B|-3-|---------3-----------3----3-|---------3-----------3-------3-|-
G|---|-----0---------2---0--------|-----0---------2---0-----------|-
D|---|---0---------0--------------|---0---------0-----------------|-
A|---|-1---------1----------------|-1---------1-------------------|-
E|---|----------------------------|-------------------------------|-



E|-1---------1-------3-5-6-5-3-1h3-|-------------------0-1-1-1-1-1-1-1-1-1-1-3-3-3-3-3-3-3-3-
B|---------3-----------------------|-1/3-3-3-3-3-3-3-3---------------------------------------
G|-----0---------2---0-------------|---------------------------------------------------------
D|---0---------0-------------------|---------------------------------------------------------
A|-1---------1---------------------|-0---1-------------0h1---------------1-1/3---------------
E|---------------------------------|---------------------------------------------------------



E|-5-6-5-3-1--3---|-------|-5-6--5--3--1---|----|---|-
B|--------------1-|-------|--------------1-|----|-3-|-
G|----------------|-------|----------------|----|-2-|-
D|----------------|-------|----------------|----|-0-|-
A|----------------|-------|----------------|----|---|-
E|----------------|-------|----------------|----|---|-



E|----------------|-----------------------------------------------------------------|-
B|----------------|-----------------------------------------------------------------|-
G|--2-2-2-2-2-2-2-|---2---2---2---2---2---2---2---2---2---2---2---2---2---2---2---2-|-
D|----------------|---------------------------------2---2---2---2---2---2---2---2---|-
A|----------------|-1---1---1---1---3---3---3---3-----------------------------------|-
E|----------------|-----------------------------------------------------------------|-



E|-----------------------------------------------------------------|-
B|-----------------------------------------------------------------|-
G|---2---2---2---2---2---2---2---2---2---2---2---2---2---2---2---2-|-
D|---------------------------------2---2---2---2---1---1---1---1---|-
A|-1---1---1---1---3---3---3---3-----------------------------------|-
E|-----------------------------------------------------------------|-
http://www.guitartabcreator.com
Guitar Tab Creator is intended to store guitar tab created through the tool. It currently does not support in-line text editing. Any text you place in here will be lost. If you need to comment on your tab, please use the "Tab Notes" section located below.