Roxas v2

(/) Slide Up  (\) Slide Down  (h) Hammer On  (p) Pull Off  (b) Bend (r) Release (v) Vibrato


E|-0-----0-----0---|-1-----1-----1---|-13----13-12--|-10-8-6-8----|-6-8-10-8-13-|-6-5-6-8-10-12-|-
B|-----------------|-----------------|----10--------|-----------6-|-------------|---------------|-
G|---2-0---2-0---2-|---2-0---2-0---2-|--------------|-------------|-------------|---------------|-
D|-----------------|-----------------|--------------|-------------|-------------|---------------|-
A|-----------------|-----------------|--------------|-------------|-------------|---------------|-
E|-----------------|-----------------|--------------|-------------|-------------|---------------|-



E|-13-15-17-13-15--13-12-|-10-----------|-
B|-----------------------|-----10-------|-
G|-----------------------|--------10----|-
D|-----------------------|-----------12-|-
A|-----------------------|--------------|-
E|-----------------------|--------------|-



E|-
B|-
G|-
D|-
A|-
E|-
http://www.guitartabcreator.com
Guitar Tab Creator is intended to store guitar tab created through the tool. It currently does not support in-line text editing. Any text you place in here will be lost. If you need to comment on your tab, please use the "Tab Notes" section located below.