Professor Layton Theme

(/) Slide Up  (\) Slide Down  (h) Hammer On  (p) Pull Off  (b) Bend (r) Release (v) Vibrato


E|-----------------------------|-
B|-----------------------------|-
G|---0------1--0---3------1--0-|-
D|-----------------------------|-
A|-3----3-3------3----3-3------|-
E|-----------------------------|-



E|-----1---1--------|-------------------------|-----1---1--------|-----------|-
B|-3-4--------4-3---|-----------------------1-|-3-4--------4-3-2-|-1---------|-
G|----------------1-|-0----0----0-----0-1-3---|------------------|----1/0----|-
D|------------------|----3----3-----3---------|------------------|---------3-|-
A|------------------|-------------------------|------------------|-----------|-
E|------------------|-------------------------|------------------|-----------|-



E|--------------1-----------|----------------------------------|-
B|-3-----4------------4-3---|--------------------------------1-|-
G|---0---1--0---3-----1---1-|-0-0----0-1--0-0-3------1-0-1-3---|-
D|--------------------------|------3------3--------------------|-
A|-3---3------3---3-3-------|-3----3-3------3----3-3-----------|-
E|--------------------------|----------------------------------|-



E|-------------1---1---------|-------------------------|-
B|-3-----4-------------4-3-2-|-1-----------------------|-
G|---0---1-0---3-----1-------|---0---1--0---3-----1--0-|-
D|---------------------------|--------------3----------|-
A|-3---3-----3---3-3---------|-3---3-3----3---3-3------|-
E|---------------------------|-------------------------|-



E|-----------------------|-----------------------|--------------------------------|-
B|-3--3----3-3-4-5/6-4-3-|-3--4----1-2/3-4-6-4-3-|-1---------------1--------------|-
G|-----------------------|-----------------------|----0----0-1-2/3---3-1-0----3-0-|-
D|-----------------------|-----------------------|-------------------------3------|-
A|-----------------------|-----------------------|--------------------------------|-
E|-----------------------|-----------------------|--------------------------------|-



E|----------------------------|---------------------|---------------------------1-
B|-----------3--3---3-4-6-4-3-|-3-4---1-2/3-4-6-4-3-|---1-0h1----3-4-3-1----3-4---
G|-------0-3------------------|---------------------|-3--------0------------------
D|---0-3----------------------|---------------------|-----------------------------
A|-3--------------------------|---------------------|-----------------------------
E|----------------------------|---------------------|-----------------------------



E|-3-1---6-3----------------1-|-3-1-6--3-1-3----------------------|---
B|-----------4-3-4----1-3-4---|--------------4-3-1--------0-1-2-3-|---
G|----------------------------|-----------------------1-3---------|---
D|----------------------------|-----------------------------------|---
A|----------------------------|-----------------------------------|---
E|----------------------------|-----------------------------------|---



E|-----------1--------------------1-3-1-----------6-3----------------------------
B|-4--3--------4/3-----1---3---4--------4-3---1-------3-4--5/6-4-3-4-3-4-3--1----
G|-------3---------3/0---0---0--------------3------------------------------------
D|-------------------------------------------------------------------------------
A|-------------------------------------------------------------------------------
E|-------------------------------------------------------------------------------
http://www.guitartabcreator.com
Guitar Tab Creator is intended to store guitar tab created through the tool. It currently does not support in-line text editing. Any text you place in here will be lost. If you need to comment on your tab, please use the "Tab Notes" section located below.