Not That Sort Of Bank v1

(/) Slide Up  (\) Slide Down  (h) Hammer On  (p) Pull Off  (b) Bend (r) Release (v) Vibrato


E|----------------5-|--------------|------1---0---1---0---1---0---1---0---1---0---1---0---1---0---|-
B|-----2-----3----6-|-----2--------|--------3---3---3---3---3---3---3---3---3---3---3---3---3---3-|-
G|---3---------3----|---3---3------|----------------------------------------------2-2-----2-2-----|-
D|---------0--------|--------------|------------------------------0-0-----------------------------|-
A|-1-----4----------|-1-----4-5/4--|-1-1----------1-1-----4-4-------------------------------------|-
E|------------------|--------------|--------------------------------------------------------------|-



E|---------1-1-------------1-1-------------1-1-------------1-1-----|-|---------1-1-----10-|-
B|-----2-2-----2-2-----2-2-----2-2-----3-3-----3-3-----3-3-----3-3-|-|-----3-3-----3-3-10-|-
G|-------------------------------------------------2-2-----2-2-----|-|--------------------|-
D|---------------------------------0-0-----------------------------|-|-0-0-------------0--|-
A|-1-1-------------1-1-----4-4---------------------0-0-----0-0-----|-|--------------------|-
E|-----------------------------------------------------------------|-|--------------------|-



E|---|---------1---------------1-------|-|---------1-------|-----------10-|-
B|---|-----2-------2-------3-------3---|-|-----2-------2---|-----2-3------|-
G|-2-|---3---3---3---3---2---2-2-2---2-|-|---2---2-2-2---2-|-3------------|-
D|---|-----------------0---------------|-|-0---------------|-------0------|-
A|---|-1-----------4-----------0-------|-|---------0-------|-1---4--------|-
E|---|---------------------------------|-|-----------------|--------------|-



E|-19-19-19-20-19------------5----3---0---|-------------|-
B|------------------------------------4---|-1-------2-1-|-
G|------------------2-2-2-----------------|-----2-------|-
D|----------------------------------------|-------------|-
A|------------------0-0-0-----------------|-------------|-
E|----------------------------------------|-------------|-



E|------------------|-----------------|------------3-----------5-----------9-----------|---
B|------------------|-----------------|------------------------------------------------|---
G|------------------|-----------------|------------------------------------------------|-0-
D|------------------|-----------------|--------------1---1---1-------------------------|---
A|------------------|-----------------|------------3---3---3-----6---6---6---6---6---6-|---
E|-3--3--4-4-4-4-3--|-3--3--6-6-6-6-3-|-3--3-3-3-3-------------8---8---8---8---8---8---|---



E|-----------------|-6/7-|-
B|-----------------|-----|-
G|---0---0---0---0-|-----|-
D|-----------------|-----|-
A|-3---3---3---3---|-----|-
E|-----------------|-----|-
http://www.guitartabcreator.com
Guitar Tab Creator is intended to store guitar tab created through the tool. It currently does not support in-line text editing. Any text you place in here will be lost. If you need to comment on your tab, please use the "Tab Notes" section located below.