Morning Song

(/) Slide Up  (\) Slide Down  (h) Hammer On  (p) Pull Off  (b) Bend (r) Release (v) Vibrato


E|-------0--0--------|-------0--0----------|-------0--2-2-3---5/7-|-8-7-5-3-3-0--3/5-|---
B|---0-3------3--3-0-|-----3------3--3-----|-----3----------3-----|------------------|---
G|-0-----------------|-2-4-------------2h4-|-2-4------------------|------------------|---
D|-------------------|---------------------|----------------------|------------------|---
A|-------------------|---------------------|----------------------|------------------|---
E|-------------------|---------------------|----------------------|------------------|---



E|-----2--3-------------|---2-3----------|-----2--3---------------|--------------|-
B|-0-3------3-0-1-0-----|-3-----3--3-1-3-|-0-3------3-0-1-0-------|-1-0----------|-
G|------------------0-2-|----------------|------------------2-0---|-----0--0---0-|-
D|----------------------|----------------|----------------------4-|----------4---|-
A|----------------------|----------------|------------------------|--------------|-
E|----------------------|----------------|------------------------|--------------|-



E|-------5--------|-------------------|----------------------|----------------------|-
B|----------------|-------------------|----------------------|--------------------3-|-
G|-0-2------2-2-0-|-----------------0-|-----------------0--4-|-----------------0----|-
D|----------------|-0-0-0-2--2-4--4---|-0-0-0-2--2-4--4------|-0-0-0-2--2-4--4------|-
A|----------------|-------------------|----------------------|----------------------|-
E|----------------|-------------------|----------------------|----------------------|-



E|-------2--3-------------------|-2-3----------|-------2-3----------------------|------------|-
B|---0-3------3-0--1--0---------|-----3--3-0-3-|---0-3-----3---3-0-3--1---------|-1-0--------|-
G|-0---------------------2-0--2-|--------------|-2-----------------------2-0--2-|-----0--0---|-
D|------------------------------|--------------|--------------------------------|----------4-|-
A|------------------------------|--------------|--------------------------------|------------|-
E|------------------------------|--------------|--------------------------------|------------|-



E|---------------------|-
B|---------------------|-
G|------------0--0-2/4-|-
D|-0-0-0-2--2----------|-
A|---------------------|-
E|---------------------|-



E|--------------
B|-0------------
G|---2-0--0---0-
D|----------2---
A|--------------
E|--------------



E|-
B|-
G|-
D|-
A|-
E|-
http://www.guitartabcreator.com
Guitar Tab Creator is intended to store guitar tab created through the tool. It currently does not support in-line text editing. Any text you place in here will be lost. If you need to comment on your tab, please use the "Tab Notes" section located below.