Letting Go v1

(/) Slide Up  (\) Slide Down  (h) Hammer On  (p) Pull Off  (b) Bend (r) Release (v) Vibrato


E|-5-|-5-1-0----3-|-5-1-0---8-6-|-5-|-5-6-|-5-|-5-|-
B|---|--------3---|-------3-----|---|-----|---|---|-
G|---|------------|-------------|---|-----|---|---|-
D|---|------------|-------------|---|-----|---|---|-
A|---|------------|-------------|---|-----|---|---|-
E|---|------------|-------------|---|-----|---|---|-



E|-5--6--1-0--5-3-1--|-1--3--1-0--|-
B|-------------------|------------|-
G|-------------------|------------|-
D|-------------------|------------|-
A|-------------------|------------|-
E|-------------------|------------|-



E|-5-|-5---1---6-1---0-|-1----1---6-3---|-5--1--6-1--0-|-1--1--3---5-|-
B|---|-----------------|----------------|--------------|---------1---|-
G|---|-----------------|----------------|--------------|-------------|-
D|---|-----------------|----------------|--------------|-------------|-
A|---|-----------------|----------------|--------------|-------------|-
E|---|-----------------|----------------|--------------|-------------|-



E|-8--10-10--3--8-8--3--6-6--5-|-5--1--6-3--0--8-8--6-------3-8-|-
B|-----------------------------|--------------------------1-----|-
G|-----------------------------|--------------------------------|-
D|-----------------------------|--------------------------------|-
A|-----------------------------|--------------------------------|-
E|-----------------------------|--------------------------------|-



E|-5-1-6-1-0-|----1-1--6-3--0-3-|-5-1-6-1-0-|-1--1--1-1--|-
B|-----------|------------------|-----------|------------|-
G|-----------|------------------|-----------|------------|-
D|-----------|-3----------------|-----------|------------|-
A|-----------|------------------|-----------|------------|-
E|-----------|------------------|-----------|------------|-



E|-1-8-10-10-8-8-6-6-5-|-5--3--
B|---------------------|-------
G|---------------------|-------
D|---------------------|-------
A|---------------------|-------
E|---------------------|-------
http://www.guitartabcreator.com
Guitar Tab Creator is intended to store guitar tab created through the tool. It currently does not support in-line text editing. Any text you place in here will be lost. If you need to comment on your tab, please use the "Tab Notes" section located below.