Jeeves & Wooster (violin)

(/) Slide Up  (\) Slide Down  (h) Hammer On  (p) Pull Off  (b) Bend (r) Release (v) Vibrato


E|-----------------|-----------------|----------|----------|------------------|-
B|-1---------------|-1----------2-1--|-2--------|-1--------|----------------1-|-
G|----1-4-3-1------|----1-4-3-1------|----1-4-3-|----1-3-1-|-5/6--1-4-3-2-3---|-
D|------------4-3--|-----------------|----------|----------|------------------|-
A|-----------------|-----------------|----------|----------|------------------|-
E|-----------------|-----------------|----------|----------|------------------|-



E|---------------------------|---
B|-------1-1-1-1-1-1---1-----|---
G|---1-4-------------6---4-1-|-1-
D|-3-------------------------|---
A|---------------------------|---
E|---------------------------|---
http://www.guitartabcreator.com
Guitar Tab Creator is intended to store guitar tab created through the tool. It currently does not support in-line text editing. Any text you place in here will be lost. If you need to comment on your tab, please use the "Tab Notes" section located below.