Iris

(/) Slide Up  (\) Slide Down  (h) Hammer On  (p) Pull Off  (b) Bend (r) Release (v) Vibrato


E|-----|-----------|-----------|---------------|-------------|-
B|-----|-6---------|-----------|-----6---------|---7-6-------|-
G|-6-8-|---6-----6-|-5-6-8p6-6-|-6-8---6-----6-|-6-----8p6-6-|-
D|-----|-----6-8---|-----------|---------6-8---|-------------|-
A|-----|-----------|-----------|---------------|-------------|-
E|-----|-----------|-----------|---------------|-------------|-



E|---------------|-----------|---------------|-----------|-
B|-----6---------|-------6-6-|-6-7-9-6-------|-7-6-------|-
G|-6-8---6-----6-|-5-6-8-----|---------6-8-6-|-----8p6-6-|-
D|---------6-8---|-----------|---------------|-----------|-
A|---------------|-----------|---------------|-----------|-
E|---------------|-----------|---------------|-----------|-



E|---4---4---4-6-8-4-|---4---4-----4---|---4---4---4-6-8-9-------|---5-5-7-5-5-4-|-
B|-6---6---6---------|-6---6---6-----6-|-6---6---6---------6-----|---------------|-
G|-------------------|-----------8-----|---------------------8-6-|-6-------------|-
D|-------------------|-----------------|-------------------------|---------------|-
A|-------------------|-----------------|-------------------------|---------------|-
E|-------------------|-----------------|-------------------------|---------------|-



E|---------------9/11-9-----|--------------------------|---------------|-
B|-9-6-7-9-6-7-9--------7-7-|-7-7-9-6-----9-9-10-6-----|-----6-7-9-6---|-
G|--------------------------|---------8-6----------8-6-|-6-8---------8-|-
D|--------------------------|--------------------------|---------------|-
A|--------------------------|--------------------------|---------------|-
E|--------------------------|--------------------------|---------------|-



E|---------------9/11-9-11-12-11-9--------|-----6-8-6-------|---------------|-
B|-9-6-7-9-6-7-9-------------------9/10-9-|-6-9-------6-7-7-|-----7-6-------|-
G|----------------------------------------|-----------------|-6-8-----8-6-6-|-
D|----------------------------------------|-----------------|---------------|-
A|----------------------------------------|-----------------|---------------|-
E|----------------------------------------|-----------------|---------------|-



E|-
B|-
G|-
D|-
A|-
E|-
http://www.guitartabcreator.com
Guitar Tab Creator is intended to store guitar tab created through the tool. It currently does not support in-line text editing. Any text you place in here will be lost. If you need to comment on your tab, please use the "Tab Notes" section located below.