Irene Adler (violin)

(/) Slide Up  (\) Slide Down  (h) Hammer On  (p) Pull Off  (b) Bend (r) Release (v) Vibrato

E|-5----|----1-6-|-5----|----0-|-------|-0----|-1-|-0-1-8-6-|-0-|-0-1-6-5-|-
B|----5-|--5-----|----5-|--5---|-0-1-5-|----5-|---|---------|---|---------|-
G|------|--------|------|------|-------|------|---|---------|---|---------|-
D|------|--------|------|------|-------|------|---|---------|---|---------|-
A|------|--------|------|------|-------|------|---|---------|---|---------|-
E|------|--------|------|------|-------|------|---|---------|---|---------|-



E|-------0--|--------0--|-----------|--------6--|--
B|--5-------|--4--5-----|--0--1--0--|--1--0-----|--
G|----------|-----------|-----------|-----------|--
D|----------|-----------|-----------|-----------|--
A|----------|-----------|-----------|-----------|--
E|----------|-----------|-----------|-----------|--
http://www.guitartabcreator.com
Guitar Tab Creator is intended to store guitar tab created through the tool. It currently does not support in-line text editing. Any text you place in here will be lost. If you need to comment on your tab, please use the "Tab Notes" section located below.