ifoundyouwalking

(/) Slide Up  (\) Slide Down  (h) Hammer On  (p) Pull Off  (b) Bend (r) Release (v) Vibrato

E|----------------|-----2--------------|-----|--2--|--|--|--|-----|--1--|--
B|--2----------0--|--0--3--------------|--2--|--3--|--|--|--|--2--|--3--|--
G|--2-------2-----|-----2--2-----2--2--|--2--|--2--|--|--|--|--2--|--2--|--
D|--2----2--------|-----------4--------|--2--|-----|--|--|--|--2--|--0--|--
A|--0-------------|--------------------|--0--|-----|--|--|--|--0--|-----|--
E|----------------|--------------------|-----|-----|--|--|--|-----|-----|--



E|--------|-----------|--------|-----------|--------|-----------|--------|-------------|-
B|------0-|-0---------|------0-|-0---------|------0-|-0---------|------0-|-1p0---------|-
G|----2---|---2---2-2-|----2---|---2---2-2-|----2---|---2---2-2-|----2---|-----2-------|-
D|--2-----|-----4-----|--2-----|-----4-----|--2-----|-----4-----|--2-----|-------2/3-2-|-
A|--------|-----------|--------|-----------|--------|-----------|--------|-------------|-
E|--------|-----------|--------|-----------|--------|-----------|--------|-------------|-



E|---|-1---3-1-0h1-|-0----------1--3-1-0h1-0-
B|-2-|-3-----------|-2--2-2-2/3-3----------2-
G|-2-|-2-----------|-2----------2----------2-
D|-2-|-------------|-2----------0----------2-
A|-0-|-------------|-------------------------
E|---|-------------|-------------------------



E|-
B|-
G|-
D|-
A|-
E|-



E|--5--0--0--0----0----0--1--3--1-----------------0------|--5--0--0--0----0--0--1--3--1------------------|-------------------------------
B|-----------------------------------3----3--3p2---------|---------------------------------3--3--3p2-----|-------------------------------
G|-------------------------------------------------------|--------------------------------------------2--|-------------------------------
D|-------------------------------------------------------|-----------------------------------------------|--2--2--3h5--3--0--------------
A|-------------------------------------------------------|-----------------------------------------------|-------------------4-----------
E|-------------------------------------------------------|-----------------------------------------------|-------------------------------



E|-----------------|-------------------|---
B|-----0-0---------|-----0-1/0---------|---
G|---2-----2---2-2-|---2-------2---2-2-|---
D|-2---------4-----|-2-----------4-----|---
A|-----------------|-------------------|---
E|-----------------|-------------------|---
http://www.guitartabcreator.com
Guitar Tab Creator is intended to store guitar tab created through the tool. It currently does not support in-line text editing. Any text you place in here will be lost. If you need to comment on your tab, please use the "Tab Notes" section located below.